  0
SECTION
  2
HEADER
  9
$ACADVER
  1
AC1018
  9
$ACADMAINTVER
 70
     0
  9
$DWGCODEPAGE
  3
ANSI_1252
  9
$INSBASE
 10
0.0
 20
0.0
 30
0.0
  9
$EXTMIN
 10
473.5381353495695
 20
637.9672070116344
 30
0.0
  9
$EXTMAX
 10
4158.866613232201
 20
2162.64706125897
 30
0.0
  9
$LIMMIN
 10
0.0
 20
0.0
  9
$LIMMAX
 10
420.0
 20
297.0
  9
$ORTHOMODE
 70
     0
  9
$REGENMODE
 70
     1
  9
$FILLMODE
 70
     1
  9
$QTEXTMODE
 70
     0
  9
$MIRRTEXT
 70
     0
  9
$LTSCALE
 40
1.0
  9
$ATTMODE
 70
     1
  9
$TEXTSIZE
 40
2.5
  9
$TRACEWID
 40
1.0
  9
$TEXTSTYLE
  7
Standard
  9
$CLAYER
  8
0
  9
$CELTYPE
  6
ByLayer
  9
$CECOLOR
 62
   256
  9
$CELTSCALE
 40
1.0
  9
$DISPSILH
 70
     0
  9
$DIMSCALE
 40
1.0
  9
$DIMASZ
 40
2.5
  9
$DIMEXO
 40
0.625
  9
$DIMDLI
 40
3.75
  9
$DIMRND
 40
0.0
  9
$DIMDLE
 40
0.0
  9
$DIMEXE
 40
1.25
  9
$DIMTP
 40
0.0
  9
$DIMTM
 40
0.0
  9
$DIMTXT
 40
2.5
  9
$DIMCEN
 40
2.5
  9
$DIMTSZ
 40
0.0
  9
$DIMTOL
 70
     0
  9
$DIMLIM
 70
     0
  9
$DIMTIH
 70
     0
  9
$DIMTOH
 70
     0
  9
$DIMSE1
 70
     0
  9
$DIMSE2
 70
     0
  9
$DIMTAD
 70
     1
  9
$DIMZIN
 70
     8
  9
$DIMBLK
  1

  9
$DIMASO
 70
     1
  9
$DIMSHO
 70
     1
  9
$DIMPOST
  1

  9
$DIMAPOST
  1

  9
$DIMALT
 70
     0
  9
$DIMALTD
 70
     3
  9
$DIMALTF
 40
0.03937007874016
  9
$DIMLFAC
 40
1.0
  9
$DIMTOFL
 70
     1
  9
$DIMTVP
 40
0.0
  9
$DIMTIX
 70
     0
  9
$DIMSOXD
 70
     0
  9
$DIMSAH
 70
     0
  9
$DIMBLK1
  1

  9
$DIMBLK2
  1

  9
$DIMSTYLE
  2
ISO-25
  9
$DIMCLRD
 70
     0
  9
$DIMCLRE
 70
     0
  9
$DIMCLRT
 70
     0
  9
$DIMTFAC
 40
1.0
  9
$DIMGAP
 40
0.625
  9
$DIMJUST
 70
     0
  9
$DIMSD1
 70
     0
  9
$DIMSD2
 70
     0
  9
$DIMTOLJ
 70
     0
  9
$DIMTZIN
 70
     8
  9
$DIMALTZ
 70
     0
  9
$DIMALTTZ
 70
     0
  9
$DIMUPT
 70
     0
  9
$DIMDEC
 70
     2
  9
$DIMTDEC
 70
     2
  9
$DIMALTU
 70
     2
  9
$DIMALTTD
 70
     3
  9
$DIMTXSTY
  7
Standard
  9
$DIMAUNIT
 70
     0
  9
$DIMADEC
 70
     0
  9
$DIMALTRND
 40
0.0
  9
$DIMAZIN
 70
     0
  9
$DIMDSEP
 70
    44
  9
$DIMATFIT
 70
     3
  9
$DIMFRAC
 70
     0
  9
$DIMLDRBLK
  1

  9
$DIMLUNIT
 70
     2
  9
$DIMLWD
 70
    -2
  9
$DIMLWE
 70
    -2
  9
$DIMTMOVE
 70
     0
  9
$LUNITS
 70
     2
  9
$LUPREC
 70
     4
  9
$SKETCHINC
 40
1.0
  9
$FILLETRAD
 40
0.0
  9
$AUNITS
 70
     0
  9
$AUPREC
 70
     0
  9
$MENU
  1
.
  9
$ELEVATION
 40
0.0
  9
$PELEVATION
 40
0.0
  9
$THICKNESS
 40
0.0
  9
$LIMCHECK
 70
     0
  9
$CHAMFERA
 40
0.0
  9
$CHAMFERB
 40
0.0
  9
$CHAMFERC
 40
0.0
  9
$CHAMFERD
 40
0.0
  9
$SKPOLY
 70
     0
  9
$TDCREATE
 40
2454550.638712917
  9
$TDUCREATE
 40
2454550.555379584
  9
$TDUPDATE
 40
2454583.512158565
  9
$TDUUPDATE
 40
2454583.428825231
  9
$TDINDWG
 40
0.1765932292
  9
$TDUSRTIMER
 40
0.1765903356
  9
$USRTIMER
 70
     1
  9
$ANGBASE
 50
0.0
  9
$ANGDIR
 70
     0
  9
$PDMODE
 70
     0
  9
$PDSIZE
 40
0.0
  9
$PLINEWID
 40
0.0
  9
$SPLFRAME
 70
     0
  9
$SPLINETYPE
 70
     6
  9
$SPLINESEGS
 70
     8
  9
$HANDSEED
  5
1739
  9
$SURFTAB1
 70
     6
  9
$SURFTAB2
 70
     6
  9
$SURFTYPE
 70
     6
  9
$SURFU
 70
     6
  9
$SURFV
 70
     6
  9
$UCSBASE
  2

  9
$UCSNAME
  2

  9
$UCSORG
 10
0.0
 20
0.0
 30
0.0
  9
$UCSXDIR
 10
1.0
 20
0.0
 30
0.0
  9
$UCSYDIR
 10
0.0
 20
1.0
 30
0.0
  9
$UCSORTHOREF
  2

  9
$UCSORTHOVIEW
 70
     0
  9
$UCSORGTOP
 10
0.0
 20
0.0
 30
0.0
  9
$UCSORGBOTTOM
 10
0.0
 20
0.0
 30
0.0
  9
$UCSORGLEFT
 10
0.0
 20
0.0
 30
0.0
  9
$UCSORGRIGHT
 10
0.0
 20
0.0
 30
0.0
  9
$UCSORGFRONT
 10
0.0
 20
0.0
 30
0.0
  9
$UCSORGBACK
 10
0.0
 20
0.0
 30
0.0
  9
$PUCSBASE
  2

  9
$PUCSNAME
  2

  9
$PUCSORG
 10
0.0
 20
0.0
 30
0.0
  9
$PUCSXDIR
 10
1.0
 20
0.0
 30
0.0
  9
$PUCSYDIR
 10
0.0
 20
1.0
 30
0.0
  9
$PUCSORTHOREF
  2

  9
$PUCSORTHOVIEW
 70
     0
  9
$PUCSORGTOP
 10
0.0
 20
0.0
 30
0.0
  9
$PUCSORGBOTTOM
 10
0.0
 20
0.0
 30
0.0
  9
$PUCSORGLEFT
 10
0.0
 20
0.0
 30
0.0
  9
$PUCSORGRIGHT
 10
0.0
 20
0.0
 30
0.0
  9
$PUCSORGFRONT
 10
0.0
 20
0.0
 30
0.0
  9
$PUCSORGBACK
 10
0.0
 20
0.0
 30
0.0
  9
$USERI1
 70
     0
  9
$USERI2
 70
     0
  9
$USERI3
 70
     0
  9
$USERI4
 70
     0
  9
$USERI5
 70
     0
  9
$USERR1
 40
0.0
  9
$USERR2
 40
0.0
  9
$USERR3
 40
0.0
  9
$USERR4
 40
0.0
  9
$USERR5
 40
0.0
  9
$WORLDVIEW
 70
     1
  9
$SHADEDGE
 70
     3
  9
$SHADEDIF
 70
    70
  9
$TILEMODE
 70
     1
  9
$MAXACTVP
 70
    64
  9
$PINSBASE
 10
0.0
 20
0.0
 30
0.0
  9
$PLIMCHECK
 70
     0
  9
$PEXTMIN
 10
0.0
 20
0.0
 30
0.0
  9
$PEXTMAX
 10
0.0
 20
0.0
 30
0.0
  9
$PLIMMIN
 10
0.0
 20
0.0
  9
$PLIMMAX
 10
12.0
 20
9.0
  9
$UNITMODE
 70
     0
  9
$VISRETAIN
 70
     1
  9
$PLINEGEN
 70
     0
  9
$PSLTSCALE
 70
     1
  9
$TREEDEPTH
 70
  3020
  9
$CMLSTYLE
  2
Standard
  9
$CMLJUST
 70
     0
  9
$CMLSCALE
 40
20.0
  9
$PROXYGRAPHICS
 70
     1
  9
$MEASUREMENT
 70
     1
  9
$CELWEIGHT
370
    -1
  9
$ENDCAPS
280
     0
  9
$JOINSTYLE
280
     0
  9
$LWDISPLAY
290
     0
  9
$INSUNITS
 70
     4
  9
$HYPERLINKBASE
  1

  9
$STYLESHEET
  1

  9
$XEDIT
290
     1
  9
$CEPSNTYPE
380
     0
  9
$PSTYLEMODE
290
     1
  9
$FINGERPRINTGUID
  2
{FDEAD578-A652-11D2-9A35-0060089B3A3F}
  9
$VERSIONGUID
  2
{7229005D-BE6E-43C4-BFB2-7945587DA177}
  9
$EXTNAMES
290
     1
  9
$PSVPSCALE
 40
0.0
  9
$OLESTARTUP
290
     0
  9
$SORTENTS
280
   127
  9
$INDEXCTL
280
     0
  9
$HIDETEXT
280
     1
  9
$XCLIPFRAME
290
     0
  9
$HALOGAP
280
     0
  9
$OBSCOLOR
 70
   257
  9
$OBSLTYPE
280
     0
  9
$INTERSECTIONDISPLAY
280
     0
  9
$INTERSECTIONCOLOR
 70
   257
  9
$DIMASSOC
280
     2
  9
$PROJECTNAME
  1

  0
ENDSEC
  0
SECTION
  2
CLASSES
  0
CLASS
  1
ACDBDICTIONARYWDFLT
  2
AcDbDictionaryWithDefault
  3
ObjectDBX Classes
 90
        0
 91
        1
280
     0
281
     0
  0
CLASS
  1
DICTIONARYVAR
  2
AcDbDictionaryVar
  3
ObjectDBX Classes
 90
        0
 91
        2
280
     0
281
     0
  0
CLASS
  1
DIMASSOC
  2
AcDbDimAssoc
  3
"AcDbDimAssoc|Product Desc:     AcDim ARX App For Dimension|Company:          Autodesk, Inc.|WEB Address:      www.autodesk.com"
 90
        0
 91
        0
280
     0
281
     0
  0
ENDSEC
  0
SECTION
  2
TABLES
  0
TABLE
  2
VPORT
  5
8
330
0
100
AcDbSymbolTable
 70
     7
  0
VPORT
  5
1738
330
8
100
AcDbSymbolTableRecord
100
AcDbViewportTableRecord
  2
*Active
 70
     0
 10
0.0
 20
0.0
 11
1.0
 21
1.0
 12
1331.507379215007
 22
1072.575403789721
 13
0.0
 23
0.0
 14
10.0
 24
10.0
 15
10.0
 25
10.0
 16
0.0
 26
0.0
 36
1.0
 17
0.0
 27
0.0
 37
0.0
 40
1537.56929582522
 41
1.58893280632411
 42
50.0
 43
0.0
 44
0.0
 50
0.0
 51
0.0
 71
     0
 72
 20000
 73
     1
 74
     3
 75
     0
 76
     0
 77
     0
 78
     0
281
     0
 65
     1
110
0.0
120
0.0
130
0.0
111
1.0
121
0.0
131
0.0
112
0.0
122
1.0
132
0.0
 79
     0
146
0.0
  0
ENDTAB
  0
TABLE
  2
LTYPE
  5
5
330
0
100
AcDbSymbolTable
 70
     1
  0
LTYPE
  5
14
330
5
100
AcDbSymbolTableRecord
100
AcDbLinetypeTableRecord
  2
ByBlock
 70
     0
  3

 72
    65
 73
     0
 40
0.0
  0
LTYPE
  5
15
330
5
100
AcDbSymbolTableRecord
100
AcDbLinetypeTableRecord
  2
ByLayer
 70
     0
  3

 72
    65
 73
     0
 40
0.0
  0
LTYPE
  5
16
330
5
100
AcDbSymbolTableRecord
100
AcDbLinetypeTableRecord
  2
Continuous
 70
     0
  3
Solid line
 72
    65
 73
     0
 40
0.0
  0
ENDTAB
  0
TABLE
  2
LAYER
  5
2
330
0
100
AcDbSymbolTable
 70
     2
  0
LAYER
  5
10
330
2
100
AcDbSymbolTableRecord
100
AcDbLayerTableRecord
  2
0
 70
     0
 62
     7
  6
Continuous
370
    -3
390
F
  0
LAYER
  5
101
330
2
100
AcDbSymbolTableRecord
100
AcDbLayerTableRecord
  2
Defpoints
 70
     0
 62
     7
  6
Continuous
290
     0
370
    -3
390
F
  0
ENDTAB
  0
TABLE
  2
STYLE
  5
3
330
0
100
AcDbSymbolTable
 70
     1
  0
STYLE
  5
11
330
3
100
AcDbSymbolTableRecord
100
AcDbTextStyleTableRecord
  2
Standard
 70
     0
 40
0.0
 41
1.0
 50
0.0
 71
     0
 42
2.5
  3
txt
  4

  0
ENDTAB
  0
TABLE
  2
VIEW
  5
6
330
0
100
AcDbSymbolTable
 70
     0
  0
ENDTAB
  0
TABLE
  2
UCS
  5
7
330
0
100
AcDbSymbolTable
 70
     0
  0
ENDTAB
  0
TABLE
  2
APPID
  5
9
330
0
100
AcDbSymbolTable
 70
     1
  0
APPID
  5
12
330
9
100
AcDbSymbolTableRecord
100
AcDbRegAppTableRecord
  2
ACAD
 70
     0
  0
ENDTAB
  0
TABLE
  2
DIMSTYLE
  5
A
330
0
100
AcDbSymbolTable
 70
     1
100
AcDbDimStyleTable
 71
     1
340
27
  0
DIMSTYLE
105
27
330
A
100
AcDbSymbolTableRecord
100
AcDbDimStyleTableRecord
  2
ISO-25
 70
     0
 41
2.5
 42
0.625
 43
3.75
 44
1.25
 73
     0
 74
     0
 77
     1
 78
     8
140
2.5
141
2.5
143
0.03937007874016
147
0.625
171
     3
172
     1
271
     2
272
     2
274
     3
278
    44
283
     0
284
     8
340
11
  0
ENDTAB
  0
TABLE
  2
BLOCK_RECORD
  5
1
330
0
100
AcDbSymbolTable
 70
    17
  0
BLOCK_RECORD
  5
1F
330
1
100
AcDbSymbolTableRecord
100
AcDbBlockTableRecord
  2
*Model_Space
340
22
  0
BLOCK_RECORD
  5
50
330
1
100
AcDbSymbolTableRecord
100
AcDbBlockTableRecord
  2
*Paper_Space
340
51
  0
BLOCK_RECORD
  5
55
330
1
100
AcDbSymbolTableRecord
100
AcDbBlockTableRecord
  2
*Paper_Space0
340
56
  0
ENDTAB
  0
ENDSEC
  0
SECTION
  2
BLOCKS
  0
BLOCK
  5
20
330
1F
100
AcDbEntity
  8
0
100
AcDbBlockBegin
  2
*Model_Space
 70
     0
 10
0.0
 20
0.0
 30
0.0
  3
*Model_Space
  1

  0
ENDBLK
  5
21
330
1F
100
AcDbEntity
  8
0
100
AcDbBlockEnd
  0
BLOCK
  5
52
330
50
100
AcDbEntity
 67
     1
  8
0
100
AcDbBlockBegin
  2
*Paper_Space
 70
     0
 10
0.0
 20
0.0
 30
0.0
  3
*Paper_Space
  1

  0
ENDBLK
  5
53
330
50
100
AcDbEntity
 67
     1
  8
0
100
AcDbBlockEnd
  0
BLOCK
  5
57
330
55
100
AcDbEntity
  8
0
100
AcDbBlockBegin
  2
*Paper_Space0
 70
     0
 10
0.0
 20
0.0
 30
0.0
  3
*Paper_Space0
  1

  0
ENDBLK
  5
58
330
55
100
AcDbEntity
  8
0
100
AcDbBlockEnd
  0
ENDSEC
  0
SECTION
  2
ENTITIES
  0
LWPOLYLINE
  5
E5F
330
1F
100
AcDbEntity
  8
0
100
AcDbPolyline
 90
        4
 70
     1
 43
0.0
 10
1842.051892408311
 20
791.0952710406892
 10
2080.124492471179
 20
791.0952710406892
 10
2080.124492471179
 20
665.5071218877622
 10
1842.051892408311
 20
665.5071218877622
  0
LINE
  5
E60
330
1F
100
AcDbEntity
  8
0
 62
     1
100
AcDbLine
 10
1553.154520076745
 20
1397.966932344589
 30
0.0
 11
1553.154520076745
 21
1207.967004878054
 31
0.0
  0
LINE
  5
E61
330
1F
100
AcDbEntity
  8
0
 62
     1
100
AcDbLine
 10
1283.154527721158
 20
1397.966927280645
 30
0.0
 11
1283.154522408056
 21
1207.966998746324
 31
0.0
  0
LINE
  5
E62
330
1F
100
AcDbEntity
  8
0
 62
     1
100
AcDbLine
 10
1013.154526230263
 20
1207.966992614595
 30
0.0
 11
1013.154522408056
 21
1397.966918188387
 31
0.0
  0
LINE
  5
E63
330
1F
100
AcDbEntity
  8
0
 62
     1
100
AcDbLine
 10
1823.154519345822
 20
1207.967011009784
 30
0.0
 11
1013.154526230263
 21
1207.966992614595
 31
0.0
  0
LINE
  5
E64
330
1F
100
AcDbEntity
  8
0
 62
     1
100
AcDbLine
 10
1823.154519345822
 20
1397.966937408533
 30
0.0
 11
1823.154519345822
 21
1207.967011009784
 31
0.0
  0
LINE
  5
E65
330
1F
100
AcDbEntity
  8
0
 62
     1
100
AcDbLine
 10
1013.154522408056
 20
1397.966922216701
 30
0.0
 11
1823.154519345822
 21
1397.966937408533
 31
0.0
  0
LINE
  5
E66
330
1F
100
AcDbEntity
  8
0
 62
     1
100
AcDbLine
 10
1013.154531543365
 20
1587.966844587135
 30
0.0
 11
1013.154531543365
 21
1397.966918188387
 31
0.0
  0
LINE
  5
E67
330
1F
100
AcDbEntity
  8
0
 62
     1
100
AcDbLine
 10
743.1545315433655
 20
1587.966844587135
 30
0.0
 11
743.1545315433655
 21
1397.966918188387
 31
0.0
  0
LINE
  5
E68
330
1F
100
AcDbEntity
  8
0
 62
     1
100
AcDbLine
 10
743.1545315433655
 20
1397.966918188387
 30
0.0
 11
1013.154531543365
 21
1397.966918188387
 31
0.0
  0
LINE
  5
E69
330
1F
100
AcDbEntity
  8
0
 62
     1
100
AcDbLine
 10
743.1545315433655
 20
1587.966844587135
 30
0.0
 11
1013.154531543365
 21
1587.966844587135
 31
0.0
  0
LINE
  5
E6A
330
1F
100
AcDbEntity
  8
0
 62
     1
100
AcDbLine
 10
1013.154527721158
 20
1587.966847790493
 30
0.0
 11
1283.154527721158
 21
1587.966847790493
 31
0.0
  0
LINE
  5
E6B
330
1F
100
AcDbEntity
  8
0
 62
     1
100
AcDbLine
 10
1013.154527721158
 20
1587.966847790493
 30
0.0
 11
1013.154527721158
 21
1397.966921391744
 31
0.0
  0
LINE
  5
E6C
330
1F
100
AcDbEntity
  8
0
 62
     1
100
AcDbLine
 10
1283.154527721158
 20
1587.966847790493
 30
0.0
 11
1283.154527721158
 21
1397.966921391744
 31
0.0
  0
LINE
  5
E6D
330
1F
100
AcDbEntity
  8
0
 62
     1
100
AcDbLine
 10
1823.154520076745
 20
1587.966854197208
 30
0.0
 11
1823.154520076745
 21
1397.96692779846
 31
0.0
  0
LINE
  5
E6E
330
1F
100
AcDbEntity
  8
0
 62
     1
100
AcDbLine
 10
1553.154520076745
 20
1587.966854197208
 30
0.0
 11
1553.154520076745
 21
1397.96692779846
 31
0.0
  0
LINE
  5
E6F
330
1F
100
AcDbEntity
  8
0
 62
     1
100
AcDbLine
 10
1553.154520076745
 20
1587.966854197208
 30
0.0
 11
1823.154520076745
 21
1587.966854197208
 31
0.0
  0
LINE
  5
E70
330
1F
100
AcDbEntity
  8
0
 62
     1
100
AcDbLine
 10
1283.154523898952
 20
1587.96685099385
 30
0.0
 11
1553.154523898952
 21
1587.96685099385
 31
0.0
  0
LINE
  5
E71
330
1F
100
AcDbEntity
  8
0
 62
     1
100
AcDbLine
 10
1283.154523898952
 20
1587.96685099385
 30
0.0
 11
1283.154523898952
 21
1397.966924595102
 31
0.0
  0
LINE
  5
E72
330
1F
100
AcDbEntity
  8
0
 62
     1
100
AcDbLine
 10
1553.154523898952
 20
1587.96685099385
 30
0.0
 11
1553.154523898952
 21
1397.966924595102
 31
0.0
  0
LINE
  5
E73
330
1F
100
AcDbEntity
  8
0
 62
     1
100
AcDbLine
 10
1283.154520076745
 20
1587.966854197208
 30
0.0
 11
1553.154520076745
 21
1587.966854197208
 31
0.0
  0
LINE
  5
E74
330
1F
100
AcDbEntity
  8
0
 62
     1
100
AcDbLine
 10
1553.154516254538
 20
1587.966857400566
 30
0.0
 11
1823.154516254538
 21
1587.966857400566
 31
0.0
  0
LINE
  5
E75
330
1F
100
AcDbEntity
  8
0
 62
     1
100
AcDbLine
 10
1013.154523898952
 20
1587.96685099385
 30
0.0
 11
1283.154523898952
 21
1587.96685099385
 31
0.0
  0
LINE
  5
E76
330
1F
100
AcDbEntity
  8
0
 62
     1
100
AcDbLine
 10
743.1545277211585
 20
1587.966847790493
 30
0.0
 11
1013.154527721158
 21
1587.966847790493
 31
0.0
  0
LINE
  5
E77
330
1F
100
AcDbEntity
  8
0
 62
     1
100
AcDbLine
 10
1823.154524658924
 20
1587.966862982324
 30
0.0
 11
2093.154524658924
 21
1587.966862982324
 31
0.0
  0
LINE
  5
E78
330
1F
100
AcDbEntity
  8
0
 62
     1
100
AcDbLine
 10
1823.154532303337
 20
1587.966856575609
 30
0.0
 11
1823.154532303337
 21
1397.966930176861
 31
0.0
  0
LINE
  5
E79
330
1F
100
AcDbEntity
  8
0
 62
     1
100
AcDbLine
 10
1823.154528481131
 20
1587.966859778967
 30
0.0
 11
2093.154528481131
 21
1587.966859778967
 31
0.0
  0
LINE
  5
E7A
330
1F
100
AcDbEntity
  8
0
 62
     1
100
AcDbLine
 10
1823.154528481131
 20
1397.966933380218
 30
0.0
 11
2093.154528481131
 21
1397.966933380218
 31
0.0
  0
LINE
  5
E7B
330
1F
100
AcDbEntity
  8
0
 62
     1
100
AcDbLine
 10
1823.154528481131
 20
1587.966859778967
 30
0.0
 11
1823.154528481131
 21
1397.966933380218
 31
0.0
  0
LINE
  5
E7C
330
1F
100
AcDbEntity
  8
0
 62
     1
100
AcDbLine
 10
2093.154528481131
 20
1587.966859778967
 30
0.0
 11
2093.154528481131
 21
1397.966933380218
 31
0.0
  0
LINE
  5
E7D
330
1F
100
AcDbEntity
  8
0
 62
     1
100
AcDbLine
 10
2093.154516334982
 20
827.9671486022145
 30
0.0
 11
2093.154516334982
 21
637.9672222034662
 31
0.0
  0
LINE
  5
E7E
330
1F
100
AcDbEntity
  8
0
 62
     1
100
AcDbLine
 10
1823.154516334982
 20
827.9671486022145
 30
0.0
 11
1823.154516334982
 21
637.9672222034662
 31
0.0
  0
LINE
  5
E7F
330
1F
100
AcDbEntity
  8
0
 62
     1
100
AcDbLine
 10
1823.154516334982
 20
637.9672222034662
 30
0.0
 11
2093.154516334982
 21
637.9672222034662
 31
0.0
  0
LINE
  5
E80
330
1F
100
AcDbEntity
  8
0
 62
     1
100
AcDbLine
 10
1823.154504108389
 20
827.9671430204556
 30
0.0
 11
2093.154504108389
 21
827.9671430204556
 31
0.0
  0
LINE
  5
E81
330
1F
100
AcDbEntity
  8
0
 62
     1
100
AcDbLine
 10
1823.154520157189
 20
827.9671453988566
 30
0.0
 11
1823.154520157189
 21
637.9672190001087
 31
0.0
  0
LINE
  5
E82
330
1F
100
AcDbEntity
  8
0
 62
     1
100
AcDbLine
 10
1823.154516334982
 20
1017.967075000963
 30
0.0
 11
1823.154516334982
 21
827.9671486022145
 31
0.0
  0
LINE
  5
E83
330
1F
100
AcDbEntity
  8
0
 62
     1
100
AcDbLine
 10
1823.154512512775
 20
1017.96707820432
 30
0.0
 11
2093.154512512775
 21
1017.96707820432
 31
0.0
  0
LINE
  5
E84
330
1F
100
AcDbEntity
  8
0
 62
     1
100
AcDbLine
 10
1823.154512512775
 20
1017.96707820432
 30
0.0
 11
1823.154512512775
 21
827.9671518055723
 31
0.0
  0
LINE
  5
E85
330
1F
100
AcDbEntity
  8
0
 62
     1
100
AcDbLine
 10
2093.154512512775
 20
1017.96707820432
 30
0.0
 11
2093.154512512775
 21
827.9671518055723
 31
0.0
  0
LINE
  5
E86
330
1F
100
AcDbEntity
  8
0
 62
     1
100
AcDbLine
 10
2093.154519345822
 20
1397.966937408533
 30
0.0
 11
2093.154519345822
 21
1207.967011009784
 31
0.0
  0
LINE
  5
E87
330
1F
100
AcDbEntity
  8
0
 62
     1
100
AcDbLine
 10
1823.154519345822
 20
1207.967011009784
 30
0.0
 11
2093.154519345822
 21
1207.967011009784
 31
0.0
  0
LINE
  5
E88
330
1F
100
AcDbEntity
  8
0
 62
     1
100
AcDbLine
 10
1823.154519345822
 20
1397.966937408533
 30
0.0
 11
2093.154519345822
 21
1397.966937408533
 31
0.0
  0
LINE
  5
E89
330
1F
100
AcDbEntity
  8
0
 62
     1
100
AcDbLine
 10
1823.154526990236
 20
1207.967004603069
 30
0.0
 11
1823.154526990236
 21
1017.96707820432
 31
0.0
  0
LINE
  5
E8A
330
1F
100
AcDbEntity
  8
0
 62
     1
100
AcDbLine
 10
1823.154523168028
 20
1207.967007806426
 30
0.0
 11
2093.154523168029
 21
1207.967007806426
 31
0.0
  0
LINE
  5
E8B
330
1F
100
AcDbEntity
  8
0
 62
     1
100
AcDbLine
 10
1823.154523168028
 20
1017.967081407678
 30
0.0
 11
2093.154523168029
 21
1017.967081407678
 31
0.0
  0
LINE
  5
E8C
330
1F
100
AcDbEntity
  8
0
 62
     1
100
AcDbLine
 10
1823.154523168028
 20
1207.967007806426
 30
0.0
 11
1823.154523168028
 21
1017.967081407678
 31
0.0
  0
LINE
  5
E8D
330
1F
100
AcDbEntity
  8
0
 62
     1
100
AcDbLine
 10
2093.154523168029
 20
1207.967007806426
 30
0.0
 11
2093.154523168029
 21
1017.967081407678
 31
0.0
  0
LINE
  5
E8E
330
1F
100
AcDbEntity
  8
0
 62
     1
100
AcDbLine
 10
743.1545262302639
 20
1207.966992614595
 30
0.0
 11
743.1545262302639
 21
1017.967066215846
 31
0.0
  0
LINE
  5
E8F
330
1F
100
AcDbEntity
  8
0
 62
     1
100
AcDbLine
 10
743.1545262302639
 20
1017.967066215846
 30
0.0
 11
1013.154526230263
 21
1017.967066215846
 31
0.0
  0
LINE
  5
E90
330
1F
100
AcDbEntity
  8
0
 62
     1
100
AcDbLine
 10
743.1545262302639
 20
1207.966992614595
 30
0.0
 11
1013.154526230263
 21
1207.966992614595
 31
0.0
  0
LINE
  5
E91
330
1F
100
AcDbEntity
  8
0
 62
     1
100
AcDbLine
 10
1013.154536885516
 20
1017.967069419204
 30
0.0
 11
1283.154536885516
 21
1017.967069419204
 31
0.0
  0
LINE
  5
E92
330
1F
100
AcDbEntity
  8
0
 62
     1
100
AcDbLine
 10
1283.154522408056
 20
1207.966995817952
 30
0.0
 11
1283.154522408056
 21
1017.967069419204
 31
0.0
  0
LINE
  5
E93
330
1F
100
AcDbEntity
  8
0
 62
     1
100
AcDbLine
 10
1823.154514763642
 20
1207.967002224667
 30
0.0
 11
1823.154514763642
 21
1017.967075825919
 31
0.0
  0
LINE
  5
E94
330
1F
100
AcDbEntity
  8
0
 62
     1
100
AcDbLine
 10
1553.154514763643
 20
1207.967002224667
 30
0.0
 11
1553.154514763643
 21
1017.967075825919
 31
0.0
  0
LINE
  5
E95
330
1F
100
AcDbEntity
  8
0
 62
     1
100
AcDbLine
 10
1553.154514763643
 20
1017.967075825919
 30
0.0
 11
1823.154514763642
 21
1017.967075825919
 31
0.0
  0
LINE
  5
E96
330
1F
100
AcDbEntity
  8
0
 62
     1
100
AcDbLine
 10
1283.154504108389
 20
1017.967072622561
 30
0.0
 11
1553.15450410839
 21
1017.967072622561
 31
0.0
  0
LINE
  5
E97
330
1F
100
AcDbEntity
  8
0
 62
     1
100
AcDbLine
 10
1283.154518585849
 20
1207.966999021309
 30
0.0
 11
1283.154518585849
 21
1017.967072622561
 31
0.0
  0
LINE
  5
E98
330
1F
100
AcDbEntity
  8
0
 62
     1
100
AcDbLine
 10
1553.15451858585
 20
1207.966999021309
 30
0.0
 11
1553.15451858585
 21
1017.967072622561
 31
0.0
  0
LINE
  5
E99
330
1F
100
AcDbEntity
  8
0
 62
     1
100
AcDbLine
 10
743.1545224080561
 20
1397.966922216701
 30
0.0
 11
1013.154522408056
 21
1397.966922216701
 31
0.0
  0
LINE
  5
E9A
330
1F
100
AcDbEntity
  8
0
 62
     1
100
AcDbLine
 10
743.1545224080561
 20
1207.966995817952
 30
0.0
 11
1013.154522408056
 21
1207.966995817952
 31
0.0
  0
LINE
  5
E9B
330
1F
100
AcDbEntity
  8
0
 62
     1
100
AcDbLine
 10
743.1545224080561
 20
1397.966922216701
 30
0.0
 11
743.1545224080561
 21
1207.966995817952
 31
0.0
  0
LINE
  5
E9C
330
1F
100
AcDbEntity
  8
0
 62
     1
100
AcDbLine
 10
1013.154515575009
 20
1017.967063012488
 30
0.0
 11
1013.154515575009
 21
827.9671366137401
 31
0.0
  0
LINE
  5
E9D
330
1F
100
AcDbEntity
  8
0
 62
     1
100
AcDbLine
 10
743.1545155750093
 20
1017.967063012488
 30
0.0
 11
743.1545155750093
 21
827.9671366137401
 31
0.0
  0
LINE
  5
E9E
330
1F
100
AcDbEntity
  8
0
 62
     1
100
AcDbLine
 10
743.1545155750093
 20
827.9671366137401
 30
0.0
 11
1013.154515575009
 21
827.9671366137401
 31
0.0
  0
LINE
  5
E9F
330
1F
100
AcDbEntity
  8
0
 62
     1
100
AcDbLine
 10
743.1545155750093
 20
1017.967063012488
 30
0.0
 11
1013.154515575009
 21
1017.967063012488
 31
0.0
  0
LINE
  5
EA0
330
1F
100
AcDbEntity
  8
0
 62
     1
100
AcDbLine
 10
1013.154511752803
 20
827.9671398170981
 30
0.0
 11
1283.154511752803
 21
827.9671398170981
 31
0.0
  0
LINE
  5
EA1
330
1F
100
AcDbEntity
  8
0
 62
     1
100
AcDbLine
 10
1013.154511752803
 20
1017.967066215846
 30
0.0
 11
1013.154511752803
 21
827.9671398170981
 31
0.0
  0
LINE
  5
EA2
330
1F
100
AcDbEntity
  8
0
 62
     1
100
AcDbLine
 10
1283.154511752803
 20
1017.967066215846
 30
0.0
 11
1283.154511752803
 21
827.9671398170981
 31
0.0
  0
LINE
  5
EA3
330
1F
100
AcDbEntity
  8
0
 62
     1
100
AcDbLine
 10
1823.154504108389
 20
1017.967072622561
 30
0.0
 11
1823.154504108389
 21
827.9671462238132
 31
0.0
  0
LINE
  5
EA4
330
1F
100
AcDbEntity
  8
0
 62
     1
100
AcDbLine
 10
1553.15450410839
 20
1017.967072622561
 30
0.0
 11
1553.15450410839
 21
827.9671462238132
 31
0.0
  0
LINE
  5
EA5
330
1F
100
AcDbEntity
  8
0
 62
     1
100
AcDbLine
 10
1553.15450410839
 20
827.9671462238132
 30
0.0
 11
1823.154504108389
 21
827.9671462238132
 31
0.0
  0
LINE
  5
EA6
330
1F
100
AcDbEntity
  8
0
 62
     1
100
AcDbLine
 10
1553.15450410839
 20
1017.967072622561
 30
0.0
 11
1823.154504108389
 21
1017.967072622561
 31
0.0
  0
LINE
  5
EA7
330
1F
100
AcDbEntity
  8
0
 62
     1
100
AcDbLine
 10
1283.154507930596
 20
827.9671430204556
 30
0.0
 11
1553.154507930596
 21
827.9671430204556
 31
0.0
  0
LINE
  5
EA8
330
1F
100
AcDbEntity
  8
0
 62
     1
100
AcDbLine
 10
1283.154507930596
 20
1017.967069419204
 30
0.0
 11
1283.154507930596
 21
827.9671430204556
 31
0.0
  0
LINE
  5
EA9
330
1F
100
AcDbEntity
  8
0
 62
     1
100
AcDbLine
 10
1553.154507930596
 20
1017.967069419204
 30
0.0
 11
1553.154507930596
 21
827.9671430204556
 31
0.0
  0
LINE
  5
EAA
330
1F
100
AcDbEntity
  8
0
 62
     1
100
AcDbLine
 10
1553.154511752802
 20
827.9671398170981
 30
0.0
 11
1553.154511752802
 21
637.9672134183497
 31
0.0
  0
LINE
  5
EAB
330
1F
100
AcDbEntity
  8
0
 62
     1
100
AcDbLine
 10
1283.154511752803
 20
827.9671398170981
 30
0.0
 11
1283.154511752803
 21
637.9672134183497
 31
0.0
  0
LINE
  5
EAC
330
1F
100
AcDbEntity
  8
0
 62
     1
100
AcDbLine
 10
1283.154511752803
 20
637.9672134183497
 30
0.0
 11
1553.154511752802
 21
637.9672134183497
 31
0.0
  0
LINE
  5
EAD
330
1F
100
AcDbEntity
  8
0
 62
     1
100
AcDbLine
 10
1283.154511752803
 20
827.9671398170981
 30
0.0
 11
1553.154511752802
 21
827.9671398170981
 31
0.0
  0
LINE
  5
EAE
330
1F
100
AcDbEntity
  8
0
 62
     1
100
AcDbLine
 10
1553.154507930596
 20
827.9671430204556
 30
0.0
 11
1823.154507930596
 21
827.9671430204556
 31
0.0
  0
LINE
  5
EAF
330
1F
100
AcDbEntity
  8
0
 62
     1
100
AcDbLine
 10
1553.154507930596
 20
637.9672166217074
 30
0.0
 11
1823.154507930596
 21
637.9672166217074
 31
0.0
  0
LINE
  5
EB0
330
1F
100
AcDbEntity
  8
0
 62
     1
100
AcDbLine
 10
1553.154507930596
 20
827.9671430204556
 30
0.0
 11
1553.154507930596
 21
637.9672166217074
 31
0.0
  0
LINE
  5
EB1
330
1F
100
AcDbEntity
  8
0
 62
     1
100
AcDbLine
 10
1823.154507930596
 20
827.9671430204556
 30
0.0
 11
1823.154507930596
 21
637.9672166217074
 31
0.0
  0
LINE
  5
EB2
330
1F
100
AcDbEntity
  8
0
 62
     1
100
AcDbLine
 10
1283.154515575009
 20
827.9671366137401
 30
0.0
 11
1283.154515575009
 21
637.9672102149919
 31
0.0
  0
LINE
  5
EB3
330
1F
100
AcDbEntity
  8
0
 62
     1
100
AcDbLine
 10
1013.154515575009
 20
827.9671366137401
 30
0.0
 11
1013.154515575009
 21
637.9672102149919
 31
0.0
  0
LINE
  5
EB4
330
1F
100
AcDbEntity
  8
0
 62
     1
100
AcDbLine
 10
1013.154515575009
 20
637.9672102149919
 30
0.0
 11
1283.154515575009
 21
637.9672102149919
 31
0.0
  0
LINE
  5
EB5
330
1F
100
AcDbEntity
  8
0
 62
     1
100
AcDbLine
 10
1013.154515575009
 20
827.9671366137401
 30
0.0
 11
1283.154515575009
 21
827.9671366137401
 31
0.0
  0
LINE
  5
EB6
330
1F
100
AcDbEntity
  8
0
 62
     1
100
AcDbLine
 10
743.1545193972165
 20
827.9671334103822
 30
0.0
 11
1013.154519397216
 21
827.9671334103822
 31
0.0
  0
LINE
  5
EB7
330
1F
100
AcDbEntity
  8
0
 62
     1
100
AcDbLine
 10
743.1545193972165
 20
637.9672070116344
 30
0.0
 11
1013.154519397216
 21
637.9672070116344
 31
0.0
  0
LINE
  5
EB8
330
1F
100
AcDbEntity
  8
0
 62
     1
100
AcDbLine
 10
743.1545193972165
 20
827.9671334103822
 30
0.0
 11
743.1545193972165
 21
637.9672070116344
 31
0.0
  0
LINE
  5
EB9
330
1F
100
AcDbEntity
  8
0
 62
     1
100
AcDbLine
 10
1013.154519397216
 20
827.9671334103822
 30
0.0
 11
1013.154519397216
 21
637.9672070116344
 31
0.0
  0
MTEXT
  5
EBC
330
1F
100
AcDbEntity
  8
0
100
AcDbMText
 10
1853.53327205116
 20
777.3613467947548
 30
0.0
 40
8.0
 41
444.9146667154415
 71
     1
 72
     5
  1
{\H2.5x;BALISTIK F3P\P\H0.6x;Envergure:  83  cm   \P\Plongueur:  86 cm}\P 
 73
     1
 44
1.0
  0
LINE
  5
107D
330
1F
100
AcDbEntity
  8
0
 62
     1
100
AcDbLine
 10
1013.154539820597
 20
1017.967068603621
 30
0.0
 11
1013.15453599839
 21
1207.966994177414
 31
0.0
  0
LINE
  5
1292
330
1F
100
AcDbEntity
  8
0
100
AcDbLine
 10
936.6266557865074
 20
879.4250697703645
 30
0.0
 11
936.6266557865074
 21
876.4250697703646
 31
0.0
  0
LINE
  5
1293
330
1F
100
AcDbEntity
  8
0
100
AcDbLine
 10
806.6266557865079
 20
879.4250697703645
 30
0.0
 11
806.6266557865079
 21
876.4250697703646
 31
0.0
  0
LINE
  5
1298
330
1F
100
AcDbEntity
  8
0
100
AcDbLine
 10
796.6266557865074
 20
879.4250697703645
 30
0.0
 11
806.6266557865079
 21
879.4250697703645
 31
0.0
  0
LINE
  5
1299
330
1F
100
AcDbEntity
  8
0
100
AcDbLine
 10
796.6266557865074
 20
876.4250697703646
 30
0.0
 11
806.6266557865079
 21
876.4250697703646
 31
0.0
  0
LINE
  5
129A
330
1F
100
AcDbEntity
  8
0
100
AcDbLine
 10
946.6266557865074
 20
879.4250697703645
 30
0.0
 11
936.6266557865074
 21
879.4250697703645
 31
0.0
  0
LINE
  5
129B
330
1F
100
AcDbEntity
  8
0
100
AcDbLine
 10
946.6266557865074
 20
876.4250697703646
 30
0.0
 11
936.6266557865074
 21
876.4250697703646
 31
0.0
  0
LINE
  5
138A
330
1F
100
AcDbEntity
  8
0
100
AcDbLine
 10
815.9102771718828
 20
752.0653192790477
 30
0.0
 11
815.9102771718828
 21
772.0653192790478
 31
0.0
  0
LINE
  5
138B
330
1F
100
AcDbEntity
  8
0
100
AcDbLine
 10
814.4102840686516
 20
686.6980850405686
 30
0.0
 11
817.4102702751138
 21
686.7000334527322
 31
0.0
  0
SPLINE
  5
138C
330
1F
100
AcDbEntity
  8
0
100
AcDbSpline
210
0.0
220
0.0
230
1.0
 70
     8
 71
     3
 72
    11
 73
     7
 74
     5
 42
0.0000000001
 43
0.0000000001
 44
0.0000000001
 40
0.0
 40
0.0
 40
0.0
 40
0.0
 40
17.86304563789299
 40
43.12842028912749
 40
79.21128428777169
 40
158.1240557705999
 40
158.1240557705999
 40
158.1240557705999
 40
158.1240557705999
 10
815.9102771718828
 20
666.6980850405685
 30
0.0
 10
810.0935709021738
 20
668.7084796485804
 30
0.0
 10
796.0497534152925
 20
673.5623632112694
 30
0.0
 10
784.2482861864977
 20
699.7821255203851
 30
0.0
 10
778.9951822145102
 20
745.6505203041995
 30
0.0
 10
778.582417342501
 20
784.1689159047764
 30
0.0
 10
778.299168157568
 20
810.6011655913588
 30
0.0
 11
815.9102771718828
 21
666.6980850405685
 31
0.0
 11
799.7670460924922
 21
674.3456003088663
 31
0.0
 11
787.0204932375825
 21
696.1599200686992
 31
0.0
 11
780.9826568720214
 21
731.734034342527
 31
0.0
 11
778.299168157568
 21
810.6011655913588
 31
0.0
  0
LINE
  5
138D
330
1F
100
AcDbEntity
  8
0
100
AcDbLine
 10
814.4058687337953
 20
792.806735427897
 30
0.0
 11
778.299168157568
 21
810.6011655913588
 31
0.0
  0
LINE
  5
138E
330
1F
100
AcDbEntity
  8
0
100
AcDbLine
 10
817.4102709380077
 20
792.8045597494031
 30
0.0
 11
853.5213861861976
 21
810.6011655913588
 31
0.0
  0
SPLINE
  5
138F
330
1F
100
AcDbEntity
  8
0
100
AcDbSpline
210
0.0
220
0.0
230
1.0
 70
     8
 71
     3
 72
    11
 73
     7
 74
     5
 42
0.0000000001
 43
0.0000000001
 44
0.0000000001
 40
0.0
 40
0.0
 40
0.0
 40
0.0
 40
17.86304563789279
 40
43.12842028912756
 40
79.21128428777166
 40
158.1240557705998
 40
158.1240557705998
 40
158.1240557705998
 40
158.1240557705998
 10
815.9102771718828
 20
666.6980850405685
 30
0.0
 10
821.7269834415914
 20
668.7084796485804
 30
0.0
 10
835.7708009284726
 20
673.5623632112694
 30
0.0
 10
847.5722681572687
 20
699.7821255203851
 30
0.0
 10
852.8253721292538
 20
745.6505203041993
 30
0.0
 10
853.2381370012638
 20
784.1689159047762
 30
0.0
 10
853.5213861861974
 20
810.6011655913588
 30
0.0
 11
815.9102771718828
 21
666.6980850405685
 31
0.0
 11
832.053508251273
 21
674.3456003088663
 31
0.0
 11
844.8000611061832
 21
696.1599200686992
 31
0.0
 11
850.8378974717439
 21
731.734034342527
 31
0.0
 11
853.5213861861974
 21
810.6011655913588
 31
0.0
  0
LINE
  5
1390
330
1F
100
AcDbEntity
  8
0
100
AcDbLine
 10
815.9102771718828
 20
752.0653192790477
 30
0.0
 11
815.9102771718828
 21
772.0653192790478
 31
0.0
  0
LINE
  5
1391
330
1F
100
AcDbEntity
  8
0
100
AcDbLine
 10
815.9102771718828
 20
772.0653192790478
 30
0.0
 11
815.9102771718828
 21
772.0653192790478
 31
0.0
  0
LINE
  5
1392
330
1F
100
AcDbEntity
  8
0
100
AcDbLine
 10
815.9102771718828
 20
772.0653192790478
 30
0.0
 11
817.4102709380077
 21
772.0609947460657
 31
0.0
  0
LINE
  5
1393
330
1F
100
AcDbEntity
  8
0
100
AcDbLine
 10
815.9102771718828
 20
752.0653192790477
 30
0.0
 11
817.4102702751138
 21
752.0698679336333
 31
0.0
  0
LINE
  5
1394
330
1F
100
AcDbEntity
  8
0
100
AcDbLine
 10
815.9102771718828
 20
752.0653192790477
 30
0.0
 11
814.4102840686516
 21
752.0698679336333
 31
0.0
  0
LINE
  5
1395
330
1F
100
AcDbEntity
  8
0
100
AcDbLine
 10
815.9102771718828
 20
772.0653192790478
 30
0.0
 11
814.410283405758
 21
772.0609947460657
 31
0.0
  0
LINE
  5
1396
330
1F
100
AcDbEntity
  8
0
100
AcDbLine
 10
815.9102771718828
 20
772.0653192790478
 30
0.0
 11
815.9102771718828
 21
772.0653192790478
 31
0.0
  0
LINE
  5
1397
330
1F
100
AcDbEntity
  8
0
100
AcDbLine
 10
815.9102771718828
 20
752.0653192790477
 30
0.0
 11
815.9102771718828
 21
772.0653192790478
 31
0.0
  0
LINE
  5
1398
330
1F
100
AcDbEntity
  8
0
100
AcDbLine
 10
815.9102771718828
 20
752.0653192790477
 30
0.0
 11
815.9102771718828
 21
772.0653192790478
 31
0.0
  0
LINE
  5
1399
330
1F
100
AcDbEntity
  8
0
100
AcDbLine
 10
814.4102840686516
 20
752.0698679336333
 30
0.0
 11
814.4102840686516
 21
686.6980850405686
 31
0.0
  0
LINE
  5
139A
330
1F
100
AcDbEntity
  8
0
100
AcDbLine
 10
817.4102702751138
 20
752.0698679336333
 30
0.0
 11
817.4102702751138
 21
686.7000334527322
 31
0.0
  0
LINE
  5
139B
330
1F
100
AcDbEntity
  8
0
100
AcDbLine
 10
814.410283405758
 20
772.0609947460657
 30
0.0
 11
814.4058687337953
 21
792.806735427897
 31
0.0
  0
LINE
  5
139C
330
1F
100
AcDbEntity
  8
0
100
AcDbLine
 10
817.4102709380077
 20
772.0609947460657
 30
0.0
 11
817.4102709380077
 21
792.8045597494031
 31
0.0
  0
SPLINE
  5
139D
330
1F
100
AcDbEntity
  8
0
100
AcDbSpline
210
0.0
220
0.0
230
1.0
 70
     8
 71
     3
 72
    10
 73
     6
 74
     4
 42
0.0000000001
 43
0.0000000001
 44
0.0000000001
 40
0.0
 40
0.0
 40
0.0
 40
0.0
 40
51.78197957858403
 40
101.8294037387417
 40
151.869603376472
 40
151.869603376472
 40
151.869603376472
 40
151.869603376472
 10
823.5615940068791
 20
1265.470631237929
 30
0.0
 10
840.0077377794874
 20
1259.765950297579
 30
0.0
 10
872.3491242578628
 20
1248.547679706087
 30
0.0
 10
923.5544263347566
 20
1249.777541658618
 30
0.0
 10
956.8194315806298
 20
1250.906342840288
 30
0.0
 10
973.4507336366668
 20
1251.470702691573
 30
0.0
 11
823.5615940068791
 21
1265.470631237929
 31
0.0
 11
873.4151485473285
 21
1251.470755925651
 31
0.0
 11
923.4365543736647
 21
1249.857180943285
 31
0.0
 11
973.4507336366668
 21
1251.470702691573
 31
0.0
  0
SPLINE
  5
139E
330
1F
100
AcDbEntity
  8
0
100
AcDbSpline
210
0.0
220
0.0
230
1.0
 70
     8
 71
     3
 72
     9
 73
     5
 74
     3
 42
0.0000000001
 43
0.0000000001
 44
0.0000000001
 40
0.0
 40
0.0
 40
0.0
 40
0.0
 40
17.12391182762555
 40
29.83256307164933
 40
29.83256307164933
 40
29.83256307164933
 40
29.83256307164933
 10
823.5615940068791
 20
1265.470631237929
 30
0.0
 10
818.5634453993305
 20
1268.282096543141
 30
0.0
 10
809.8558799156293
 20
1273.180113823644
 30
0.0
 10
802.561250550465
 20
1279.986181379362
 30
0.0
 10
799.4537434839874
 20
1282.885561452779
 30
0.0
 11
823.5615940068791
 21
1265.470631237929
 31
0.0
 11
809.0326778462165
 21
1274.533685440389
 31
0.0
 11
799.4537434839874
 21
1282.885561452779
 31
0.0
  0
LINE
  5
139F
330
1F
100
AcDbEntity
  8
0
100
AcDbLine
 10
799.4537434839874
 20
1282.885561452779
 30
0.0
 11
794.3585657106714
 21
1298.978200636257
 31
0.0
  0
SPLINE
  5
13A0
330
1F
100
AcDbEntity
  8
0
100
AcDbSpline
210
0.0
220
0.0
230
1.0
 70
     8
 71
     3
 72
    11
 73
     7
 74
     5
 42
0.0000000001
 43
0.0000000001
 44
0.0000000001
 40
0.0
 40
0.0
 40
0.0
 40
0.0
 40
9.072589426850591
 40
14.29955734920542
 40
18.87190623454393
 40
22.05778897566208
 40
22.05778897566208
 40
22.05778897566208
 40
22.05778897566208
 10
773.486636606156
 20
1315.470758934025
 30
0.0
 10
775.7892671184383
 20
1313.50305919517
 30
0.0
 10
779.4185063042174
 20
1310.401713599335
 30
0.0
 10
784.7036194239792
 20
1306.976744586282
 30
0.0
 10
788.3401388009334
 20
1304.631443561697
 30
0.0
 10
790.5279634332413
 20
1303.252348845396
 30
0.0
 10
791.4263837269708
 20
1302.686029835269
 30
0.0
 11
773.486636606156
 21
1315.470758934025
 31
0.0
 11
780.5456360723496
 21
1309.771425162041
 31
0.0
 11
784.8869444987386
 21
1306.860371262112
 31
0.0
 11
788.7336730928081
 21
1304.388721316666
 31
0.0
 11
791.4263837269708
 21
1302.686029835269
 31
0.0
  0
SPLINE
  5
13A1
330
1F
100
AcDbEntity
  8
0
100
AcDbSpline
210
0.0
220
0.0
230
1.0
 70
     8
 71
     3
 72
    10
 73
     6
 74
     4
 42
0.0000000001
 43
0.0000000001
 44
0.0000000001
 40
0.0
 40
0.0
 40
0.0
 40
0.0
 40
1.935569817994915
 40
2.985166233652257
 40
4.928483494949524
 40
4.928483494949524
 40
4.928483494949524
 40
4.928483494949524
 10
791.4263837269705
 20
1302.686029835269
 30
0.0
 10
791.9747954772788
 20
1302.347374382166
 30
0.0
 10
792.820593042388
 20
1301.825077116499
 30
0.0
 10
794.0143995275625
 20
1300.638611959622
 30
0.0
 10
794.2230728431868
 20
1299.631878720997
 30
0.0
 10
794.3585657106714
 20
1298.978200636257
 30
0.0
 11
791.4263837269705
 21
1302.686029835269
 31
0.0
 11
793.020028341898
 21
1301.587518405358
 31
0.0
 11
793.7344208834129
 21
1300.818560713161
 31
0.0
 11
794.3585657106714
 21
1298.978200636257
 31
0.0
  0
LINE
  5
13A2
330
1F
100
AcDbEntity
  8
0
100
AcDbLine
 10
1506.589178644015
 20
1258.171702509776
 30
0.0
 11
1419.463354662273
 21
1248.745314314171
 31
0.0
  0
SPLINE
  5
13A3
330
1F
100
AcDbEntity
  8
0
100
AcDbSpline
210
0.0
220
0.0
230
1.0
 70
     8
 71
     3
 72
    11
 73
     7
 74
     0
 42
0.0000000001
 43
0.0000000001
 40
0.0
 40
0.0
 40
0.0
 40
0.0
 40
6.81971949028791
 40
12.35042945889921
 40
19.38897325543457
 40
25.21775047874993
 40
25.21775047874993
 40
25.21775047874993
 40
25.21775047874993
 10
1419.463354662273
 20
1248.745314314171
 30
0.0
 10
1417.184351247611
 20
1248.628008076796
 30
0.0
 10
1413.057103646084
 20
1248.415567900649
 30
0.0
 10
1406.666779258132
 20
1249.937400677127
 30
0.0
 10
1401.408580358965
 20
1253.230641144171
 30
0.0
 10
1397.890723156673
 20
1255.608199561201
 30
0.0
 10
1396.340383781216
 20
1256.785988984047
 30
0.0
  0
LINE
  5
13A4
330
1F
100
AcDbEntity
  8
0
100
AcDbLine
 10
973.4507336366668
 20
1251.470702691573
 30
0.0
 11
1396.340383781216
 21
1256.785988984047
 31
0.0
  0
LINE
  5
13A5
330
1F
100
AcDbEntity
  8
0
100
AcDbLine
 10
1513.561594006879
 20
1267.470631237929
 30
0.0
 11
1513.561594006879
 21
1258.926067758421
 31
0.0
  0
LINE
  5
13A6
330
1F
100
AcDbEntity
  8
0
100
AcDbLine
 10
1506.589178644015
 20
1258.171702509776
 30
0.0
 11
1513.561594006879
 21
1258.926067758421
 31
0.0
  0
LINE
  5
13A7
330
1F
100
AcDbEntity
  8
0
100
AcDbLine
 10
793.5654908458356
 20
1334.47259710452
 30
0.0
 11
773.5654910052742
 21
1334.470071719672
 31
0.0
  0
LINE
  5
13A8
330
1F
100
AcDbEntity
  8
0
100
AcDbLine
 10
833.5674395044721
 20
1335.971333146649
 30
0.0
 11
853.5674395044726
 21
1335.971333146649
 31
0.0
  0
LINE
  5
13A9
330
1F
100
AcDbEntity
  8
0
100
AcDbLine
 10
853.5674395044726
 20
1335.971333146649
 30
0.0
 11
853.5713363434288
 21
1332.971335677543
 31
0.0
  0
LINE
  5
13AA
330
1F
100
AcDbEntity
  8
0
100
AcDbLine
 10
1348.571313528462
 20
1332.968810292694
 30
0.0
 11
1348.567416530067
 21
1335.971333146649
 31
0.0
  0
LINE
  5
13AB
330
1F
100
AcDbEntity
  8
0
100
AcDbLine
 10
1368.567416530067
 20
1335.971333146649
 30
0.0
 11
1368.571313369023
 21
1332.971335677543
 31
0.0
  0
LINE
  5
13AC
330
1F
100
AcDbEntity
  8
0
100
AcDbLine
 10
1348.567416530067
 20
1335.971333146649
 30
0.0
 11
1368.567416530067
 21
1335.971333146649
 31
0.0
  0
LINE
  5
13AD
330
1F
100
AcDbEntity
  8
0
100
AcDbLine
 10
1328.567416370628
 20
1332.971335677543
 30
0.0
 11
1308.567416530067
 21
1332.968810292694
 31
0.0
  0
LINE
  5
13AE
330
1F
100
AcDbEntity
  8
0
100
AcDbLine
 10
1433.563519372232
 20
1332.971335677543
 30
0.0
 11
1413.563519531671
 21
1332.968810292694
 31
0.0
  0
LINE
  5
13AF
330
1F
100
AcDbEntity
  8
0
100
AcDbLine
 10
1453.563519531672
 20
1335.971333146649
 30
0.0
 11
1473.563519531672
 21
1335.971333146649
 31
0.0
  0
LINE
  5
13B0
330
1F
100
AcDbEntity
  8
0
100
AcDbLine
 10
1473.563519531672
 20
1335.971333146649
 30
0.0
 11
1473.567416370628
 21
1332.971335677543
 31
0.0
  0
LINE
  5
13B1
330
1F
100
AcDbEntity
  8
0
100
AcDbLine
 10
1453.567416530067
 20
1332.968810292694
 30
0.0
 11
1453.563519531672
 21
1335.971333146649
 31
0.0
  0
LINE
  5
13B2
330
1F
100
AcDbEntity
  8
0
100
AcDbLine
 10
1348.571313528462
 20
1332.968810292694
 30
0.0
 11
1348.567416530067
 21
1335.971333146649
 31
0.0
  0
LINE
  5
13B3
330
1F
100
AcDbEntity
  8
0
100
AcDbLine
 10
1368.567416530067
 20
1335.971333146649
 30
0.0
 11
1368.571313369023
 21
1332.971335677543
 31
0.0
  0
LINE
  5
13B4
330
1F
100
AcDbEntity
  8
0
100
AcDbLine
 10
1348.567416530067
 20
1335.971333146649
 30
0.0
 11
1368.567416530067
 21
1335.971333146649
 31
0.0
  0
LINE
  5
13B5
330
1F
100
AcDbEntity
  8
0
100
AcDbLine
 10
1328.567416370628
 20
1332.971335677543
 30
0.0
 11
1308.567416530067
 21
1332.968810292694
 31
0.0
  0
LINE
  5
13B6
330
1F
100
AcDbEntity
  8
0
100
AcDbLine
 10
1223.571313369023
 20
1332.971335677543
 30
0.0
 11
1203.571313528462
 21
1332.968810292694
 31
0.0
  0
LINE
  5
13B7
330
1F
100
AcDbEntity
  8
0
100
AcDbLine
 10
1243.571313528462
 20
1335.971333146649
 30
0.0
 11
1263.571313528462
 21
1335.971333146649
 31
0.0
  0
LINE
  5
13B8
330
1F
100
AcDbEntity
  8
0
100
AcDbLine
 10
1263.571313528462
 20
1335.971333146649
 30
0.0
 11
1263.575210367418
 21
1332.971335677543
 31
0.0
  0
LINE
  5
13B9
330
1F
100
AcDbEntity
  8
0
100
AcDbLine
 10
1243.575210526858
 20
1332.968810292694
 30
0.0
 11
1243.571313528462
 21
1335.971333146649
 31
0.0
  0
LINE
  5
13BA
330
1F
100
AcDbEntity
  8
0
100
AcDbLine
 10
1133.57521074278
 20
1332.968810292694
 30
0.0
 11
1133.571313744384
 21
1335.971333146649
 31
0.0
  0
LINE
  5
13BB
330
1F
100
AcDbEntity
  8
0
100
AcDbLine
 10
1153.571313744384
 20
1335.971333146649
 30
0.0
 11
1153.575210583341
 21
1332.971335677543
 31
0.0
  0
LINE
  5
13BC
330
1F
100
AcDbEntity
  8
0
100
AcDbLine
 10
1133.571313744384
 20
1335.971333146649
 30
0.0
 11
1153.571313744384
 21
1335.971333146649
 31
0.0
  0
LINE
  5
13BD
330
1F
100
AcDbEntity
  8
0
100
AcDbLine
 10
1113.571313584945
 20
1332.971335677543
 30
0.0
 11
1093.571313744384
 21
1332.968810292694
 31
0.0
  0
LINE
  5
13BE
330
1F
100
AcDbEntity
  8
0
100
AcDbLine
 10
933.5713249641873
 20
1332.971335677543
 30
0.0
 11
913.5713251236259
 21
1332.968810292694
 31
0.0
  0
LINE
  5
13BF
330
1F
100
AcDbEntity
  8
0
100
AcDbLine
 10
953.5713251236259
 20
1335.971333146649
 30
0.0
 11
973.5713251236258
 21
1335.971333146649
 31
0.0
  0
LINE
  5
13C0
330
1F
100
AcDbEntity
  8
0
100
AcDbLine
 10
973.5713251236258
 20
1335.971333146649
 30
0.0
 11
973.5752219625824
 21
1332.971335677543
 31
0.0
  0
LINE
  5
13C1
330
1F
100
AcDbEntity
  8
0
100
AcDbLine
 10
953.5752221220219
 20
1332.968810292694
 30
0.0
 11
953.5713251236259
 21
1335.971333146649
 31
0.0
  0
LINE
  5
13C2
330
1F
100
AcDbEntity
  8
0
100
AcDbLine
 10
833.5674395044721
 20
1335.971333146649
 30
0.0
 11
833.5713363434289
 21
1332.971335677543
 31
0.0
  0
LINE
  5
13C3
330
1F
100
AcDbEntity
  8
0
100
AcDbLine
 10
973.5752219625824
 20
1332.971335677543
 30
0.0
 11
1093.571313744384
 21
1332.968810292694
 31
0.0
  0
LINE
  5
13C4
330
1F
100
AcDbEntity
  8
0
100
AcDbLine
 10
1113.571313584945
 20
1332.971335677543
 30
0.0
 11
1133.57521074278
 21
1332.968810292694
 31
0.0
  0
LINE
  5
13C5
330
1F
100
AcDbEntity
  8
0
100
AcDbLine
 10
1153.575210583341
 20
1332.971335677543
 30
0.0
 11
1203.571313528462
 21
1332.968810292694
 31
0.0
  0
LINE
  5
13C6
330
1F
100
AcDbEntity
  8
0
100
AcDbLine
 10
1223.571313369023
 20
1332.971335677543
 30
0.0
 11
1243.575210526858
 21
1332.968810292694
 31
0.0
  0
LINE
  5
13C7
330
1F
100
AcDbEntity
  8
0
100
AcDbLine
 10
1263.575210367418
 20
1332.971335677543
 30
0.0
 11
1308.567416530067
 21
1332.968810292694
 31
0.0
  0
LINE
  5
13C8
330
1F
100
AcDbEntity
  8
0
100
AcDbLine
 10
1328.567416370628
 20
1332.971335677543
 30
0.0
 11
1348.571313528462
 21
1332.968810292694
 31
0.0
  0
LINE
  5
13C9
330
1F
100
AcDbEntity
  8
0
100
AcDbLine
 10
1368.571313369023
 20
1332.971335677543
 30
0.0
 11
1413.563519531671
 21
1332.968810292694
 31
0.0
  0
LINE
  5
13CA
330
1F
100
AcDbEntity
  8
0
100
AcDbLine
 10
1433.563519372232
 20
1332.971335677543
 30
0.0
 11
1453.567416530067
 21
1332.968810292694
 31
0.0
  0
LINE
  5
13CB
330
1F
100
AcDbEntity
  8
0
100
AcDbLine
 10
1513.715167862518
 20
1258.941267105422
 30
0.0
 11
1513.715167862518
 21
1332.971335677543
 31
0.0
  0
LINE
  5
13CD
330
1F
100
AcDbEntity
  8
0
100
AcDbLine
 10
793.5674393450331
 20
1332.971335677543
 30
0.0
 11
833.5713365028677
 21
1332.968810292694
 31
0.0
  0
LINE
  5
13CE
330
1F
100
AcDbEntity
  8
0
100
AcDbLine
 10
853.5713363434288
 20
1332.971335677543
 30
0.0
 11
913.5713251236259
 21
1332.968810292694
 31
0.0
  0
LINE
  5
13CF
330
1F
100
AcDbEntity
  8
0
100
AcDbLine
 10
933.5713249641873
 20
1332.971335677543
 30
0.0
 11
953.5752221220219
 21
1332.968810292694
 31
0.0
  0
LINE
  5
13D0
330
1F
100
AcDbEntity
  8
0
100
AcDbLine
 10
933.5674281252307
 20
1352.34545828416
 30
0.0
 11
953.5713251236259
 21
1352.34545828416
 31
0.0
  0
LINE
  5
13D2
330
1F
100
AcDbEntity
  8
0
100
AcDbLine
 10
1513.715167862518
 20
1352.34545828416
 30
0.0
 11
1513.715167862518
 21
1496.048454172311
 31
0.0
  0
LINE
  5
13D4
330
1F
100
AcDbEntity
  8
0
100
AcDbLine
 10
1368.567416530067
 20
1352.34545828416
 30
0.0
 11
1413.559622533276
 21
1352.34545828416
 31
0.0
  0
LINE
  5
13D5
330
1F
100
AcDbEntity
  8
0
100
AcDbLine
 10
1328.563519531672
 20
1352.34545828416
 30
0.0
 11
1348.567416530067
 21
1352.34545828416
 31
0.0
  0
LINE
  5
13D6
330
1F
100
AcDbEntity
  8
0
100
AcDbLine
 10
1263.571313528462
 20
1352.34545828416
 30
0.0
 11
1308.563519531672
 21
1352.34545828416
 31
0.0
  0
LINE
  5
13D7
330
1F
100
AcDbEntity
  8
0
100
AcDbLine
 10
1223.567416530067
 20
1352.34545828416
 30
0.0
 11
1243.571313528462
 21
1352.34545828416
 31
0.0
  0
LINE
  5
13D8
330
1F
100
AcDbEntity
  8
0
100
AcDbLine
 10
1153.571313744384
 20
1352.34545828416
 30
0.0
 11
1203.567416530067
 21
1352.34545828416
 31
0.0
  0
LINE
  5
13D9
330
1F
100
AcDbEntity
  8
0
100
AcDbLine
 10
1113.567416745989
 20
1352.34545828416
 30
0.0
 11
1133.571313744384
 21
1352.34545828416
 31
0.0
  0
LINE
  5
13DA
330
1F
100
AcDbEntity
  8
0
100
AcDbLine
 10
973.5713251236258
 20
1352.34545828416
 30
0.0
 11
1093.567416745989
 21
1352.34545828416
 31
0.0
  0
LINE
  5
13DB
330
1F
100
AcDbEntity
  8
0
100
AcDbLine
 10
853.5674395044726
 20
1352.34545828416
 30
0.0
 11
913.5674281252304
 21
1352.34545828416
 31
0.0
  0
LINE
  5
13DC
330
1F
100
AcDbEntity
  8
0
100
AcDbLine
 10
793.5635425060768
 20
1352.34545828416
 30
0.0
 11
833.5674395044721
 21
1352.34545828416
 31
0.0
  0
LINE
  5
13DD
330
1F
100
AcDbEntity
  8
0
100
AcDbLine
 10
773.5654910052742
 20
1350.844196857182
 30
0.0
 11
773.5635425060768
 21
1352.34545828416
 31
0.0
  0
LINE
  5
13DE
330
1F
100
AcDbEntity
  8
0
100
AcDbLine
 10
953.5713251236259
 20
1352.34545828416
 30
0.0
 11
973.5713251236258
 21
1352.34545828416
 31
0.0
  0
LINE
  5
13DF
330
1F
100
AcDbEntity
  8
0
100
AcDbLine
 10
933.5674281252307
 20
1352.34545828416
 30
0.0
 11
933.5713249641873
 21
1349.345460815054
 31
0.0
  0
LINE
  5
13E0
330
1F
100
AcDbEntity
  8
0
100
AcDbLine
 10
933.5713249641873
 20
1349.345460815054
 30
0.0
 11
913.5713251236259
 21
1349.342935430205
 31
0.0
  0
LINE
  5
13E1
330
1F
100
AcDbEntity
  8
0
100
AcDbLine
 10
913.5713251236259
 20
1349.342935430205
 30
0.0
 11
913.5674281252304
 21
1352.34545828416
 31
0.0
  0
LINE
  5
13E2
330
1F
100
AcDbEntity
  8
0
100
AcDbLine
 10
1093.571313744384
 20
1349.342935430205
 30
0.0
 11
1093.567416745989
 21
1352.34545828416
 31
0.0
  0
LINE
  5
13E3
330
1F
100
AcDbEntity
  8
0
100
AcDbLine
 10
1113.571313584945
 20
1349.345460815054
 30
0.0
 11
1093.571313744384
 21
1349.342935430205
 31
0.0
  0
LINE
  5
13E4
330
1F
100
AcDbEntity
  8
0
100
AcDbLine
 10
1113.567416745989
 20
1352.34545828416
 30
0.0
 11
1113.571313584945
 21
1349.345460815054
 31
0.0
  0
LINE
  5
13E5
330
1F
100
AcDbEntity
  8
0
100
AcDbLine
 10
1133.571313744384
 20
1352.34545828416
 30
0.0
 11
1153.571313744384
 21
1352.34545828416
 31
0.0
  0
LINE
  5
13E6
330
1F
100
AcDbEntity
  8
0
100
AcDbLine
 10
1243.571313528462
 20
1352.34545828416
 30
0.0
 11
1263.571313528462
 21
1352.34545828416
 31
0.0
  0
LINE
  5
13E7
330
1F
100
AcDbEntity
  8
0
100
AcDbLine
 10
1223.567416530067
 20
1352.34545828416
 30
0.0
 11
1223.571313369023
 21
1349.345460815054
 31
0.0
  0
LINE
  5
13E8
330
1F
100
AcDbEntity
  8
0
100
AcDbLine
 10
1223.571313369023
 20
1349.345460815054
 30
0.0
 11
1203.571313528462
 21
1349.342935430205
 31
0.0
  0
LINE
  5
13E9
330
1F
100
AcDbEntity
  8
0
100
AcDbLine
 10
1203.571313528462
 20
1349.342935430205
 30
0.0
 11
1203.567416530067
 21
1352.34545828416
 31
0.0
  0
LINE
  5
13EA
330
1F
100
AcDbEntity
  8
0
100
AcDbLine
 10
1308.567416530067
 20
1349.342935430205
 30
0.0
 11
1308.563519531672
 21
1352.34545828416
 31
0.0
  0
LINE
  5
13EB
330
1F
100
AcDbEntity
  8
0
100
AcDbLine
 10
1328.567416370628
 20
1349.345460815054
 30
0.0
 11
1308.567416530067
 21
1349.342935430205
 31
0.0
  0
LINE
  5
13EC
330
1F
100
AcDbEntity
  8
0
100
AcDbLine
 10
1328.563519531672
 20
1352.34545828416
 30
0.0
 11
1328.567416370628
 21
1349.345460815054
 31
0.0
  0
LINE
  5
13ED
330
1F
100
AcDbEntity
  8
0
100
AcDbLine
 10
1348.567416530067
 20
1352.34545828416
 30
0.0
 11
1368.567416530067
 21
1352.34545828416
 31
0.0
  0
LINE
  5
13EF
330
1F
100
AcDbEntity
  8
0
100
AcDbLine
 10
1433.559622533276
 20
1352.34545828416
 30
0.0
 11
1433.563519372232
 21
1349.345460815054
 31
0.0
  0
LINE
  5
13F0
330
1F
100
AcDbEntity
  8
0
100
AcDbLine
 10
1433.563519372232
 20
1349.345460815054
 30
0.0
 11
1413.563519531671
 21
1349.342935430205
 31
0.0
  0
LINE
  5
13F1
330
1F
100
AcDbEntity
  8
0
100
AcDbLine
 10
1413.563519531671
 20
1349.342935430205
 30
0.0
 11
1413.559622533276
 21
1352.34545828416
 31
0.0
  0
LINE
  5
13F2
330
1F
100
AcDbEntity
  8
0
100
AcDbLine
 10
1308.567416530067
 20
1349.342935430205
 30
0.0
 11
1308.563519531672
 21
1352.34545828416
 31
0.0
  0
LINE
  5
13F3
330
1F
100
AcDbEntity
  8
0
100
AcDbLine
 10
1328.567416370628
 20
1349.345460815054
 30
0.0
 11
1308.567416530067
 21
1349.342935430205
 31
0.0
  0
LINE
  5
13F4
330
1F
100
AcDbEntity
  8
0
100
AcDbLine
 10
1328.563519531672
 20
1352.34545828416
 30
0.0
 11
1328.567416370628
 21
1349.345460815054
 31
0.0
  0
LINE
  5
13F5
330
1F
100
AcDbEntity
  8
0
100
AcDbLine
 10
1348.567416530067
 20
1352.34545828416
 30
0.0
 11
1368.567416530067
 21
1352.34545828416
 31
0.0
  0
LINE
  5
13F6
330
1F
100
AcDbEntity
  8
0
100
AcDbLine
 10
833.5674395044721
 20
1352.34545828416
 30
0.0
 11
853.5674395044726
 21
1352.34545828416
 31
0.0
  0
LINE
  5
13F7
330
1F
100
AcDbEntity
  8
0
100
AcDbLine
 10
793.5654908458356
 20
1350.846722242031
 30
0.0
 11
773.5654910052742
 21
1350.844196857182
 31
0.0
  0
SPLINE
  5
13F8
330
1F
100
AcDbEntity
  8
0
100
AcDbSpline
210
0.0
220
0.0
230
1.0
 70
     8
 71
     3
 72
     9
 73
     5
 74
     3
 42
0.0000000001
 43
0.0000000001
 44
0.0000000001
 40
0.0
 40
0.0
 40
0.0
 40
0.0
 40
11.17563601206819
 40
33.72457741756886
 40
33.72457741756886
 40
33.72457741756886
 40
33.72457741756886
 10
1482.293270696013
 20
1485.497227081687
 30
0.0
 10
1485.299788186694
 20
1487.78840458526
 30
0.0
 10
1494.37251852278
 20
1494.702462363558
 30
0.0
 10
1505.964519321057
 20
1495.509111848202
 30
0.0
 10
1513.715167862518
 20
1496.048454172311
 30
0.0
 11
1482.293270696013
 21
1485.497227081687
 31
0.0
 11
1491.589470355092
 21
1491.700090305455
 31
0.0
 11
1513.715167862518
 21
1496.048454172311
 31
0.0
  0
LINE
  5
13F9
330
1F
100
AcDbEntity
  8
0
100
AcDbLine
 10
1422.100248954327
 20
1430.848561955685
 30
0.0
 11
1482.293270696013
 21
1485.497227081687
 31
0.0
  0
LINE
  5
13FA
330
1F
100
AcDbEntity
  8
0
100
AcDbLine
 10
1023.948630617993
 20
1453.844007385943
 30
0.0
 11
1383.503798844732
 21
1420.808575663141
 31
0.0
  0
ARC
  5
13FB
330
1F
100
AcDbEntity
  8
0
100
AcDbCircle
 10
1390.702265397122
 20
1472.343345998215
 30
0.0
 40
52.03508887466925
100
AcDbArc
 50
262.0482746307284
 51
307.1138098708983
  0
SPLINE
  5
13FC
330
1F
100
AcDbEntity
  8
0
100
AcDbSpline
210
0.0
220
0.0
230
1.0
 70
     8
 71
     3
 72
    18
 73
    14
 74
    12
 42
0.0000000001
 43
0.0000000001
 44
0.0000000001
 40
0.0
 40
0.0
 40
0.0
 40
0.0
 40
12.07539223549336
 40
30.46650269711677
 40
43.47171020330811
 40
49.76969588958653
 40
58.46432285213237
 40
179.9519076150199
 40
190.6224523509514
 40
196.1500717264846
 40
199.5824162197106
 40
202.9706990596217
 40
206.3281279311897
 40
206.3281279311897
 40
206.3281279311897
 40
206.3281279311897
 10
855.6591824797351
 20
1401.239306677179
 30
0.0
 10
858.6668463339513
 20
1398.536320751535
 30
0.0
 10
866.2552539930549
 20
1391.716622775029
 30
0.0
 10
879.2010799509432
 20
1385.201985568387
 30
0.0
 10
890.6032079630451
 20
1379.26115029767
 30
0.0
 10
900.028710329659
 20
1378.93679823711
 30
0.0
 10
945.4061931855605
 20
1379.220052261914
 30
0.0
 10
992.5142950569833
 20
1383.088591305545
 30
0.0
 10
1038.033378258233
 20
1387.601448507858
 30
0.0
 10
1044.635976233494
 20
1388.024045354351
 30
0.0
 10
1048.462157678663
 20
1389.639317176043
 30
0.0
 10
1051.323034478904
 20
1391.553735757817
 30
0.0
 10
1052.676064945969
 20
1393.36871531799
 30
0.0
 10
1053.34948589079
 20
1394.272054363189
 30
0.0
 11
855.6591824797351
 21
1401.239306677179
 31
0.0
 11
864.9153760575584
 21
1393.484438651811
 31
0.0
 11
880.8555271377281
 21
1384.311406026065
 31
0.0
 11
892.9313994304738
 21
1379.483494402144
 31
0.0
 11
899.2108529237722
 21
1379.000703008196
 31
0.0
 11
907.9054798863181
 21
1379.000703008196
 31
0.0
 11
1029.14723379775
 21
1386.725362223952
 31
0.0
 11
1039.77400077232
 21
1387.690944239994
 31
0.0
 11
1045.250383287987
 21
1388.441817400299
 31
0.0
 11
1048.426111303238
 21
1389.744023333832
 31
0.0
 11
1051.194693876732
 21
1391.69733107635
 31
0.0
 11
1053.34948589079
 21
1394.272054363189
 31
0.0
  0
SPLINE
  5
13FD
330
1F
100
AcDbEntity
  8
0
100
AcDbSpline
210
0.0
220
0.0
230
1.0
 70
     8
 71
     3
 72
     9
 73
     5
 74
     3
 42
0.0000000001
 43
0.0000000001
 44
0.0000000001
 40
0.0
 40
0.0
 40
0.0
 40
0.0
 40
33.25996994806482
 40
66.35074479175102
 40
66.35074479175102
 40
66.35074479175102
 40
66.35074479175102
 10
1092.948992768022
 20
1447.504349513974
 30
0.0
 10
1086.490852025737
 20
1438.491681323483
 30
0.0
 10
1073.60742342103
 20
1420.512192829244
 30
0.0
 10
1060.09064242247
 20
1403.00388506158
 30
0.0
 10
1053.34948589079
 20
1394.272054363189
 30
0.0
 11
1092.948992768022
 21
1447.504349513974
 31
0.0
 11
1073.415423885433
 21
1420.584741648046
 31
0.0
 11
1053.34948589079
 21
1394.272054363189
 31
0.0
  0
SPLINE
  5
13FE
330
1F
100
AcDbEntity
  8
0
100
AcDbSpline
210
0.0
220
0.0
230
1.0
 70
     8
 71
     3
 72
    11
 73
     7
 74
     5
 42
0.0000000001
 43
0.0000000001
 44
0.0000000001
 40
0.0
 40
0.0
 40
0.0
 40
0.0
 40
23.30684669401762
 40
79.29627852542026
 40
130.9646002984171
 40
181.2490152452339
 40
181.2490152452339
 40
181.2490152452339
 40
181.2490152452339
 10
855.6591824797351
 20
1401.239306677179
 30
0.0
 10
861.6071374649258
 20
1406.252219656322
 30
0.0
 10
881.843710063287
 20
1423.307523148747
 30
0.0
 10
921.3733329013614
 20
1443.181752918457
 30
0.0
 10
973.0115249195057
 20
1456.340288759643
 30
0.0
 10
1007.12394274718
 20
1454.668537055902
 30
0.0
 10
1023.948630617993
 20
1453.844007385943
 30
0.0
 11
855.6591824797351
 21
1401.239306677179
 31
0.0
 11
873.8224965247866
 21
1415.844207420398
 31
0.0
 11
923.4087328683518
 21
1441.844623610978
 31
0.0
 11
973.6642156759977
 21
1453.844703719392
 31
0.0
 11
1023.948630617993
 21
1453.844007385943
 31
0.0
  0
SPLINE
  5
13FF
330
1F
100
AcDbEntity
  8
0
100
AcDbSpline
210
0.0
220
0.0
230
1.0
 70
     8
 71
     3
 72
    10
 73
     6
 74
     4
 42
0.0000000001
 43
0.0000000001
 44
0.0000000001
 40
0.0
 40
0.0
 40
0.0
 40
0.0
 40
26.04419973125488
 40
55.6052630534035
 40
88.54360788033364
 40
88.54360788033364
 40
88.54360788033364
 40
88.54360788033364
 10
773.561594006879
 20
1369.844756375441
 30
0.0
 10
780.9648511751495
 20
1374.39493061645
 30
0.0
 10
796.7710601023395
 20
1384.109709270467
 30
0.0
 10
824.3981061782294
 20
1395.099998490558
 30
0.0
 10
844.8700756664301
 20
1399.120452830101
 30
0.0
 10
855.6591824797351
 20
1401.239306677179
 30
0.0
 11
773.561594006879
 21
1369.844756375441
 31
0.0
 11
796.1099815184106
 21
1382.878196453613
 31
0.0
 11
823.5615940068791
 21
1393.844756375441
 31
0.0
 11
855.6591824797351
 21
1401.239306677179
 31
0.0
  0
LINE
  5
1400
330
1F
100
AcDbEntity
  8
0
100
AcDbLine
 10
1513.815503562066
 20
1408.844170280843
 30
0.0
 11
1513.815503562066
 21
1408.844170280843
 31
0.0
  0
LINE
  5
1401
330
1F
100
AcDbEntity
  8
0
100
AcDbLine
 10
773.561594006879
 20
1369.844756375441
 30
0.0
 11
773.5654910052742
 21
1350.844196857182
 31
0.0
  0
LINE
  5
1402
330
1F
100
AcDbEntity
  8
0
100
AcDbLine
 10
773.486636606156
 20
1315.470758934025
 30
0.0
 11
773.5654910052742
 21
1334.470071719672
 31
0.0
  0
LINE
  5
1403
330
1F
100
AcDbEntity
  8
0
100
AcDbLine
 10
793.5635425060768
 20
1352.34545828416
 30
0.0
 11
793.5635425060768
 21
1350.84545828416
 31
0.0
  0
LINE
  5
1404
330
1F
100
AcDbEntity
  8
0
100
AcDbLine
 10
793.5674393450331
 20
1332.971335677543
 30
0.0
 11
793.5654908458356
 21
1334.47259710452
 31
0.0
  0
LINE
  5
1405
330
1F
100
AcDbEntity
  8
0
100
AcDbLine
 10
1139.185694212654
 20
741.8559205299747
 30
0.0
 11
1159.185694212653
 21
741.8559205299747
 31
0.0
  0
LINE
  5
1406
330
1F
100
AcDbEntity
  8
0
100
AcDbLine
 10
1159.185694212653
 20
741.8559205299747
 30
0.0
 11
1159.18959105161
 21
738.8559230608686
 31
0.0
  0
LINE
  5
1407
330
1F
100
AcDbEntity
  8
0
100
AcDbLine
 10
1159.18959105161
 20
738.8559230608686
 30
0.0
 11
1139.189591211049
 21
738.8533976760202
 31
0.0
  0
LINE
  5
1408
330
1F
100
AcDbEntity
  8
0
100
AcDbLine
 10
1139.185694212654
 20
741.8559205299747
 30
0.0
 11
1139.18959105161
 21
738.8559230608686
 31
0.0
  0
LINE
  5
1409
330
1F
100
AcDbEntity
  8
0
100
AcDbLine
 10
1079.181797214258
 20
741.8559205299747
 30
0.0
 11
1099.181797214258
 21
741.8559205299747
 31
0.0
  0
LINE
  5
140A
330
1F
100
AcDbEntity
  8
0
100
AcDbLine
 10
1099.181797214258
 20
741.8559205299747
 30
0.0
 11
1099.185694053214
 21
738.8559230608686
 31
0.0
  0
LINE
  5
140B
330
1F
100
AcDbEntity
  8
0
100
AcDbLine
 10
1099.185694053214
 20
738.8559230608686
 30
0.0
 11
1079.185694212654
 21
738.8533976760202
 31
0.0
  0
LINE
  5
140C
330
1F
100
AcDbEntity
  8
0
100
AcDbLine
 10
1079.185694212654
 20
738.8533976760202
 30
0.0
 11
1079.181797214258
 21
741.8559205299747
 31
0.0
  0
LINE
  5
140D
330
1F
100
AcDbEntity
  8
0
100
AcDbLine
 10
1079.183745713456
 20
740.3546591029988
 30
0.0
 11
1079.183745713456
 21
720.354659102999
 31
0.0
  0
LINE
  5
140E
330
1F
100
AcDbEntity
  8
0
100
AcDbLine
 10
1202.955951426771
 20
680.3546591029976
 30
0.0
 11
1188.921735338206
 21
740.3546591029976
 31
0.0
  0
SPLINE
  5
140F
330
1F
100
AcDbEntity
  8
0
100
AcDbSpline
210
0.0
220
0.0
230
1.0
 70
     8
 71
     3
 72
    10
 73
     6
 74
     4
 42
0.0000000001
 43
0.0000000001
 44
0.0000000001
 40
0.0
 40
0.0
 40
0.0
 40
0.0
 40
5.955525207366788
 40
12.32027147536225
 40
16.88551075386174
 40
16.88551075386174
 40
16.88551075386174
 40
16.88551075386174
 10
1079.183745713456
 20
720.354659102999
 30
0.0
 10
1080.85845722092
 20
719.2774719624882
 30
0.0
 10
1084.322954422501
 20
717.0490810920328
 30
0.0
 10
1089.636120992455
 20
715.1111189467611
 30
0.0
 10
1093.038805991047
 20
713.8167895712803
 30
0.0
 10
1094.460040368883
 20
713.2761737324829
 30
0.0
 11
1079.183745713456
 21
720.354659102999
 31
0.0
 11
1084.304193309685
 21
717.3133934273549
 31
0.0
 11
1090.189965031126
 21
714.8910626697888
 31
0.0
 11
1094.460040368883
 21
713.2761737324829
 31
0.0
  0
SPLINE
  5
1410
330
1F
100
AcDbEntity
  8
0
100
AcDbSpline
210
0.0
220
0.0
230
1.0
 70
     8
 71
     3
 72
    11
 73
     7
 74
     5
 42
0.0000000001
 43
0.0000000001
 44
0.0000000001
 40
0.0
 40
0.0
 40
0.0
 40
0.0
 40
40.82023741758189
 40
74.26783308916106
 40
103.4840342846698
 40
112.8318441863539
 40
112.8318441863539
 40
112.8318441863539
 40
112.8318441863539
 10
1202.955951426771
 20
680.3546591029971
 30
0.0
 10
1189.208980552967
 20
679.8942113997411
 30
0.0
 10
1164.197912442483
 20
679.0564785658556
 30
0.0
 10
1131.288052374915
 20
684.2604398222902
 30
0.0
 10
1104.607468550105
 20
689.8068498759646
 30
0.0
 10
1098.838598450697
 20
701.6379653740512
 30
0.0
 10
1097.440240253443
 20
704.505795131756
 30
0.0
 11
1202.955951426771
 21
680.3546591029971
 31
0.0
 11
1162.135714009189
 21
680.3546591029971
 31
0.0
 11
1129.005367035201
 21
684.9505013101017
 31
0.0
 11
1102.135875371403
 21
696.4229391515345
 31
0.0
 11
1097.440240253443
 21
704.505795131756
 31
0.0
  0
SPLINE
  5
1411
330
1F
100
AcDbEntity
  8
0
100
AcDbSpline
210
0.0
220
0.0
230
1.0
 70
     8
 71
     3
 72
    10
 73
     6
 74
     4
 42
0.0000000001
 43
0.0000000001
 44
0.0000000001
 40
0.0
 40
0.0
 40
0.0
 40
0.0
 40
2.315143115924598
 40
5.679901716818829
 40
9.531934759776515
 40
9.531934759776515
 40
9.531934759776515
 40
9.531934759776515
 10
1094.460040368883
 20
713.2761737324829
 30
0.0
 10
1095.042905479848
 20
712.7423617467556
 30
0.0
 10
1096.472889018091
 20
711.4327236542613
 30
0.0
 10
1096.954983795924
 20
708.1202862852871
 30
0.0
 10
1097.271367409075
 20
705.7636648469997
 30
0.0
 10
1097.440240253443
 20
704.505795131756
 30
0.0
 11
1094.460040368883
 21
713.2761737324829
 31
0.0
 11
1096.018785555387
 21
711.5643907173891
 31
0.0
 11
1096.919770297523
 21
708.3225043935446
 31
0.0
 11
1097.440240253443
 21
704.505795131756
 31
0.0
  0
SPLINE
  5
1412
330
1F
100
AcDbEntity
  8
0
100
AcDbSpline
210
0.0
220
0.0
230
1.0
 70
     8
 71
     3
 72
    10
 73
     6
 74
     4
 42
0.0000000001
 43
0.0000000001
 44
0.0000000001
 40
0.0
 40
0.0
 40
0.0
 40
0.0
 40
2.315143115924598
 40
5.679901716818829
 40
9.531934759776627
 40
9.531934759776627
 40
9.531934759776627
 40
9.531934759776627
 10
1094.460040368883
 20
767.4331444735122
 30
0.0
 10
1095.042905479848
 20
767.9669564592395
 30
0.0
 10
1096.472889018091
 20
769.2765945517342
 30
0.0
 10
1096.954983795924
 20
772.5890319207078
 30
0.0
 10
1097.271367409075
 20
774.9456533589953
 30
0.0
 10
1097.440240253443
 20
776.2035230742392
 30
0.0
 11
1094.460040368883
 21
767.4331444735122
 31
0.0
 11
1096.018785555387
 21
769.1449274886061
 31
0.0
 11
1096.919770297523
 21
772.3868138124506
 31
0.0
 11
1097.440240253443
 21
776.2035230742392
 31
0.0
  0
SPLINE
  5
1413
330
1F
100
AcDbEntity
  8
0
100
AcDbSpline
210
0.0
220
0.0
230
1.0
 70
     8
 71
     3
 72
    11
 73
     7
 74
     5
 42
0.0000000001
 43
0.0000000001
 44
0.0000000001
 40
0.0
 40
0.0
 40
0.0
 40
0.0
 40
40.82023741758189
 40
74.26783308916106
 40
103.48403428467
 40
112.8318441863538
 40
112.8318441863538
 40
112.8318441863538
 40
112.8318441863538
 10
1202.955951426771
 20
800.354659102998
 30
0.0
 10
1189.208980552967
 20
800.8151068062542
 30
0.0
 10
1164.197912442483
 20
801.6528396401394
 30
0.0
 10
1131.288052374914
 20
796.4488783837055
 30
0.0
 10
1104.607468550106
 20
790.9024683300302
 30
0.0
 10
1098.838598450697
 20
779.0713528319439
 30
0.0
 10
1097.440240253443
 20
776.2035230742392
 30
0.0
 11
1202.955951426771
 21
800.354659102998
 31
0.0
 11
1162.135714009189
 21
800.354659102998
 31
0.0
 11
1129.005367035201
 21
795.7588168958936
 31
0.0
 11
1102.135875371403
 21
784.2863790544604
 31
0.0
 11
1097.440240253443
 21
776.2035230742392
 31
0.0
  0
SPLINE
  5
1414
330
1F
100
AcDbEntity
  8
0
100
AcDbSpline
210
0.0
220
0.0
230
1.0
 70
     8
 71
     3
 72
    10
 73
     6
 74
     4
 42
0.0000000001
 43
0.0000000001
 44
0.0000000001
 40
0.0
 40
0.0
 40
0.0
 40
0.0
 40
5.95552520736673
 40
12.32027147536206
 40
16.88551075386168
 40
16.88551075386168
 40
16.88551075386168
 40
16.88551075386168
 10
1079.183745713456
 20
760.3546591029962
 30
0.0
 10
1080.858457220919
 20
761.431846243507
 30
0.0
 10
1084.3229544225
 20
763.6602371139623
 30
0.0
 10
1089.636120992455
 20
765.5981992592335
 30
0.0
 10
1093.038805991047
 20
766.8925286347147
 30
0.0
 10
1094.460040368883
 20
767.4331444735122
 30
0.0
 11
1079.183745713456
 21
760.3546591029962
 31
0.0
 11
1084.304193309685
 21
763.3959247786402
 31
0.0
 11
1090.189965031126
 21
765.818255536206
 31
0.0
 11
1094.460040368883
 21
767.4331444735122
 31
0.0
  0
LINE
  5
1415
330
1F
100
AcDbEntity
  8
0
100
AcDbLine
 10
1202.955951426771
 20
800.3546591029977
 30
0.0
 11
1188.921735338206
 21
740.3546591029976
 31
0.0
  0
LINE
  5
1416
330
1F
100
AcDbEntity
  8
0
100
AcDbLine
 10
1079.183745713456
 20
740.3546591029963
 30
0.0
 11
1079.183745713456
 21
760.3546591029962
 31
0.0
  0
LINE
  5
1417
330
1F
100
AcDbEntity
  8
0
100
AcDbLine
 10
1079.185694212654
 20
741.8559205299747
 30
0.0
 11
1079.181797214258
 21
738.8533976760202
 31
0.0
  0
LINE
  5
1418
330
1F
100
AcDbEntity
  8
0
100
AcDbLine
 10
1099.185694053214
 20
741.8533951451268
 30
0.0
 11
1079.185694212654
 21
741.8559205299747
 31
0.0
  0
LINE
  5
1419
330
1F
100
AcDbEntity
  8
0
100
AcDbLine
 10
1099.181797214258
 20
738.8533976760202
 30
0.0
 11
1099.185694053214
 21
741.8533951451268
 31
0.0
  0
LINE
  5
141A
330
1F
100
AcDbEntity
  8
0
100
AcDbLine
 10
1079.181797214258
 20
738.8533976760202
 30
0.0
 11
1099.181797214258
 21
738.8533976760202
 31
0.0
  0
LINE
  5
141B
330
1F
100
AcDbEntity
  8
0
100
AcDbLine
 10
1139.185694212654
 20
738.8533976760202
 30
0.0
 11
1139.18959105161
 21
741.8533951451268
 31
0.0
  0
LINE
  5
141C
330
1F
100
AcDbEntity
  8
0
100
AcDbLine
 10
1159.18959105161
 20
741.8533951451268
 30
0.0
 11
1139.189591211049
 21
741.8559205299747
 31
0.0
  0
LINE
  5
141D
330
1F
100
AcDbEntity
  8
0
100
AcDbLine
 10
1159.185694212653
 20
738.8533976760202
 30
0.0
 11
1159.18959105161
 21
741.8533951451268
 31
0.0
  0
LINE
  5
141E
330
1F
100
AcDbEntity
  8
0
100
AcDbLine
 10
1139.185694212654
 20
738.8533976760202
 30
0.0
 11
1159.185694212653
 21
738.8533976760202
 31
0.0
  0
LINE
  5
141F
330
1F
100
AcDbEntity
  8
0
100
AcDbLine
 10
1802.029105895566
 20
862.0951817049718
 30
0.0
 11
1790.172360405182
 21
981.8954678676728
 31
0.0
  0
LINE
  5
1420
330
1F
100
AcDbEntity
  8
0
100
AcDbLine
 10
1668.500327857657
 20
862.1955174045206
 30
0.0
 11
1668.500327857657
 21
862.1955174045206
 31
0.0
  0
LINE
  5
1421
330
1F
100
AcDbEntity
  8
0
100
AcDbLine
 10
1578.12430790547
 20
919.7451625678855
 30
0.0
 11
1790.172360405182
 21
981.8954678676728
 31
0.0
  0
LINE
  5
1422
330
1F
100
AcDbEntity
  8
0
100
AcDbLine
 10
1578.12430790547
 20
919.7451625678855
 30
0.0
 11
1581.282373528601
 21
862.2968087233148
 31
0.0
  0
LINE
  5
1423
330
1F
100
AcDbEntity
  8
0
100
AcDbLine
 10
1802.029105895566
 20
862.0951817049718
 30
0.0
 11
1581.296043966189
 21
862.0951817049718
 31
0.0
  0
LINE
  5
1425
330
1F
100
AcDbEntity
  8
0
100
AcDbLine
 10
927.4770301148727
 20
1142.680938562161
 30
0.0
 11
1120.705190420065
 21
1149.026772772535
 31
0.0
  0
LINE
  5
1426
330
1F
100
AcDbEntity
  8
0
100
AcDbLine
 10
766.3740016151487
 20
972.1137133362582
 30
0.0
 11
851.001380865841
 21
957.8649274435083
 31
0.0
  0
LINE
  5
1427
330
1F
100
AcDbEntity
  8
0
100
AcDbLine
 10
1141.233987740299
 20
1000.383375312885
 30
0.0
 11
770.9954317449167
 21
1029.105823873728
 31
0.0
  0
SPLINE
  5
1428
330
1F
100
AcDbEntity
  8
0
100
AcDbSpline
210
0.0
220
0.0
230
1.0
 70
     8
 71
     3
 72
    14
 73
    10
 74
     8
 42
0.0000000001
 43
0.0000000001
 44
0.0000000001
 40
0.0
 40
0.0
 40
0.0
 40
0.0
 40
57.17917697868255
 40
77.90156624399594
 40
106.3769453457043
 40
141.4582729619779
 40
175.6918604714577
 40
215.6803874279518
 40
261.0412713438072
 40
261.0412713438072
 40
261.0412713438072
 40
261.0412713438072
 10
766.3740016151487
 20
972.1137133362582
 30
0.0
 10
767.1676218267204
 20
991.1526197611539
 30
0.0
 10
768.2488591013911
 20
1017.091444145164
 30
0.0
 10
775.4043795634916
 20
1052.19585406182
 30
0.0
 10
790.9281739690664
 20
1076.157553495236
 30
0.0
 10
813.0384311665862
 20
1100.578723915618
 30
0.0
 10
845.0977089157392
 20
1118.439591479765
 30
0.0
 10
880.9932213596068
 20
1136.452061578144
 30
0.0
 10
909.3850237463868
 20
1140.444534927855
 30
0.0
 10
924.474492309384
 20
1142.566425615821
 30
0.0
 11
766.3740016151487
 21
972.1137133362582
 31
0.0
 11
770.9954317449167
 21
1029.105823873728
 31
0.0
 11
775.9034745986009
 21
1049.238596464943
 31
0.0
 11
790.245990980008
 21
1073.838178551537
 31
0.0
 11
814.4233701377796
 21
1099.257735675564
 31
0.0
 11
843.5181833321248
 21
1117.297424113987
 31
0.0
 11
879.9891502297239
 21
1133.69714550505
 31
0.0
 11
924.474492309384
 21
1142.566425615821
 31
0.0
  0
LINE
  5
1429
330
1F
100
AcDbEntity
  8
0
100
AcDbLine
 10
924.474492309384
 20
1142.566425615821
 30
0.0
 11
924.474492309384
 21
1122.566425615821
 31
0.0
  0
LINE
  5
142A
330
1F
100
AcDbEntity
  8
0
100
AcDbLine
 10
924.474492309384
 20
1057.199191377342
 30
0.0
 11
924.474492309384
 21
1037.199191377342
 31
0.0
  0
LINE
  5
142B
330
1F
100
AcDbEntity
  8
0
100
AcDbLine
 10
927.4744897784904
 20
1122.562528776865
 30
0.0
 11
927.4770301148727
 21
1142.680938562161
 31
0.0
  0
LINE
  5
142C
330
1F
100
AcDbEntity
  8
0
100
AcDbLine
 10
924.474492309384
 20
1122.566425615821
 30
0.0
 11
927.4744897784904
 21
1122.562528776865
 31
0.0
  0
LINE
  5
142D
330
1F
100
AcDbEntity
  8
0
100
AcDbLine
 10
924.4744923093834
 20
1142.566425615821
 30
0.0
 11
924.474492309384
 21
1122.566425615821
 31
0.0
  0
LINE
  5
142E
330
1F
100
AcDbEntity
  8
0
100
AcDbLine
 10
924.474492309384
 20
1037.199191377342
 30
0.0
 11
927.4744897784907
 21
1037.195294538386
 31
0.0
  0
LINE
  5
142F
330
1F
100
AcDbEntity
  8
0
100
AcDbLine
 10
927.4744897784907
 20
1037.195294538386
 30
0.0
 11
927.4770151633392
 21
1057.195294378946
 31
0.0
  0
LINE
  5
1430
330
1F
100
AcDbEntity
  8
0
100
AcDbLine
 10
927.4770151633392
 20
1057.195294378946
 30
0.0
 11
924.474492309384
 21
1057.199191377342
 31
0.0
  0
LINE
  5
1431
330
1F
100
AcDbEntity
  8
0
100
AcDbLine
 10
927.4770151633392
 20
1037.195294378946
 30
0.0
 11
924.474492309384
 21
1037.199191377342
 31
0.0
  0
LINE
  5
1432
330
1F
100
AcDbEntity
  8
0
100
AcDbLine
 10
1179.203928993088
 20
912.7892587483438
 30
0.0
 11
1182.206451847043
 21
912.7931557467396
 31
0.0
  0
LINE
  5
1433
330
1F
100
AcDbEntity
  8
0
100
AcDbLine
 10
1179.206454377936
 20
892.789258907783
 30
0.0
 11
1179.203928993088
 21
912.7892587483438
 31
0.0
  0
LINE
  5
1434
330
1F
100
AcDbEntity
  8
0
100
AcDbLine
 10
1182.206451847043
 20
912.7931557467396
 30
0.0
 11
1182.206451847043
 21
892.7931557467395
 31
0.0
  0
LINE
  5
1435
330
1F
100
AcDbEntity
  8
0
100
AcDbLine
 10
1182.206451847043
 20
952.7970527451346
 30
0.0
 11
1182.206451847043
 21
932.7970527451347
 31
0.0
  0
LINE
  5
1436
330
1F
100
AcDbEntity
  8
0
100
AcDbLine
 10
1182.206451847043
 20
932.7970527451347
 30
0.0
 11
1179.206454377936
 21
932.7931559061784
 31
0.0
  0
LINE
  5
1437
330
1F
100
AcDbEntity
  8
0
100
AcDbLine
 10
1179.206454377936
 20
932.7931559061784
 30
0.0
 11
1179.203928993088
 21
952.7931557467397
 31
0.0
  0
LINE
  5
1438
330
1F
100
AcDbEntity
  8
0
100
AcDbLine
 10
1179.203928993088
 20
952.7931557467397
 30
0.0
 11
1182.206451847043
 21
952.7970527451346
 31
0.0
  0
LINE
  5
1439
330
1F
100
AcDbEntity
  8
0
100
AcDbLine
 10
1179.203928993088
 20
1132.793144367498
 30
0.0
 11
1182.206451847043
 21
1132.797041365893
 31
0.0
  0
LINE
  5
143A
330
1F
100
AcDbEntity
  8
0
100
AcDbLine
 10
1179.206454377936
 20
1112.793144526937
 30
0.0
 11
1179.203928993088
 21
1132.793144367498
 31
0.0
  0
LINE
  5
143B
330
1F
100
AcDbEntity
  8
0
100
AcDbLine
 10
1182.206451847043
 20
1112.797041365893
 30
0.0
 11
1179.206454377936
 21
1112.793144526937
 31
0.0
  0
LINE
  5
143C
330
1F
100
AcDbEntity
  8
0
100
AcDbLine
 10
1182.206451847043
 20
1132.797041365893
 30
0.0
 11
1182.206451847043
 21
1112.797041365893
 31
0.0
  0
LINE
  5
143D
330
1F
100
AcDbEntity
  8
0
100
AcDbLine
 10
1182.206451847043
 20
1092.793144367498
 30
0.0
 11
1182.206451847043
 21
1072.793144367498
 31
0.0
  0
LINE
  5
143E
330
1F
100
AcDbEntity
  8
0
100
AcDbLine
 10
1182.206451847043
 20
1072.793144367498
 30
0.0
 11
1179.206454377936
 21
1072.789247528541
 31
0.0
  0
LINE
  5
143F
330
1F
100
AcDbEntity
  8
0
100
AcDbLine
 10
1179.206454377936
 20
1072.789247528541
 30
0.0
 11
1179.203928993088
 21
1092.789247369102
 31
0.0
  0
LINE
  5
1440
330
1F
100
AcDbEntity
  8
0
100
AcDbLine
 10
1179.203928993088
 20
1092.789247369102
 30
0.0
 11
1182.206451847043
 21
1092.793144367498
 31
0.0
  0
LINE
  5
1441
330
1F
100
AcDbEntity
  8
0
100
AcDbLine
 10
1180.705190420065
 20
870.8289520319572
 30
0.0
 11
1134.235897583065
 21
910.176484035791
 31
0.0
  0
LINE
  5
1442
330
1F
100
AcDbEntity
  8
0
100
AcDbLine
 10
1134.235897583065
 20
910.176484035791
 30
0.0
 11
1141.233987740299
 21
1000.383375312885
 31
0.0
  0
LINE
  5
1443
330
1F
100
AcDbEntity
  8
0
100
AcDbLine
 10
1120.705190420065
 20
1149.026772772535
 30
0.0
 11
1180.705190420065
 21
1163.060988861099
 31
0.0
  0
LINE
  5
1444
330
1F
100
AcDbEntity
  8
0
100
AcDbLine
 10
1182.206451847043
 20
1092.789247369102
 30
0.0
 11
1179.203928993088
 21
1092.793144367498
 31
0.0
  0
LINE
  5
1445
330
1F
100
AcDbEntity
  8
0
100
AcDbLine
 10
1182.203926462194
 20
1072.789247528541
 30
0.0
 11
1182.206451847043
 21
1092.789247369102
 31
0.0
  0
LINE
  5
1446
330
1F
100
AcDbEntity
  8
0
100
AcDbLine
 10
1179.203928993088
 20
1072.793144367498
 30
0.0
 11
1182.203926462194
 21
1072.789247528541
 31
0.0
  0
LINE
  5
1447
330
1F
100
AcDbEntity
  8
0
100
AcDbLine
 10
1179.203928993088
 20
1092.793144367498
 30
0.0
 11
1179.203928993088
 21
1072.793144367498
 31
0.0
  0
LINE
  5
1448
330
1F
100
AcDbEntity
  8
0
100
AcDbLine
 10
1179.203928993088
 20
1132.797041365893
 30
0.0
 11
1179.203928993088
 21
1112.797041365893
 31
0.0
  0
LINE
  5
1449
330
1F
100
AcDbEntity
  8
0
100
AcDbLine
 10
1179.203928993088
 20
1112.797041365893
 30
0.0
 11
1182.203926462194
 21
1112.793144526937
 31
0.0
  0
LINE
  5
144A
330
1F
100
AcDbEntity
  8
0
100
AcDbLine
 10
1182.203926462194
 20
1112.793144526937
 30
0.0
 11
1182.206451847043
 21
1132.793144367498
 31
0.0
  0
LINE
  5
144B
330
1F
100
AcDbEntity
  8
0
100
AcDbLine
 10
1182.206451847043
 20
1132.793144367498
 30
0.0
 11
1179.203928993088
 21
1132.797041365893
 31
0.0
  0
LINE
  5
144C
330
1F
100
AcDbEntity
  8
0
100
AcDbLine
 10
1182.206451847043
 20
952.7931557467397
 30
0.0
 11
1179.203928993088
 21
952.7970527451346
 31
0.0
  0
LINE
  5
144D
330
1F
100
AcDbEntity
  8
0
100
AcDbLine
 10
1182.203926462194
 20
932.7931559061784
 30
0.0
 11
1182.206451847043
 21
952.7931557467397
 31
0.0
  0
LINE
  5
144E
330
1F
100
AcDbEntity
  8
0
100
AcDbLine
 10
1179.203928993088
 20
932.7970527451347
 30
0.0
 11
1182.203926462194
 21
932.7931559061784
 31
0.0
  0
LINE
  5
144F
330
1F
100
AcDbEntity
  8
0
100
AcDbLine
 10
1179.203928993088
 20
952.7970527451346
 30
0.0
 11
1179.203928993088
 21
932.7970527451347
 31
0.0
  0
LINE
  5
1450
330
1F
100
AcDbEntity
  8
0
100
AcDbLine
 10
1179.203928993088
 20
912.7931557467396
 30
0.0
 11
1179.203928993088
 21
892.7931557467395
 31
0.0
  0
LINE
  5
1451
330
1F
100
AcDbEntity
  8
0
100
AcDbLine
 10
1182.203926462194
 20
892.789258907783
 30
0.0
 11
1182.206451847043
 21
912.7892587483438
 31
0.0
  0
LINE
  5
1452
330
1F
100
AcDbEntity
  8
0
100
AcDbLine
 10
1182.206451847043
 20
912.7892587483438
 30
0.0
 11
1179.203928993088
 21
912.7931557467396
 31
0.0
  0
LINE
  5
1453
330
1F
100
AcDbEntity
  8
0
100
AcDbLine
 10
1016.446156184805
 20
928.0251114746468
 30
0.0
 11
1016.446156184805
 21
925.025111474647
 31
0.0
  0
LINE
  5
1454
330
1F
100
AcDbEntity
  8
0
100
AcDbLine
 10
1016.446156184805
 20
925.025111474647
 30
0.0
 11
1006.446156184805
 21
925.025111474647
 31
0.0
  0
LINE
  5
1455
330
1F
100
AcDbEntity
  8
0
100
AcDbLine
 10
866.4461561848046
 20
925.025111474647
 30
0.0
 11
866.4461561848046
 21
925.025111474647
 31
0.0
  0
LINE
  5
1456
330
1F
100
AcDbEntity
  8
0
100
AcDbLine
 10
866.4461561848046
 20
925.025111474647
 30
0.0
 11
866.4461561848046
 21
928.0251114746468
 31
0.0
  0
LINE
  5
1457
330
1F
100
AcDbEntity
  8
0
100
AcDbLine
 10
866.4461561848046
 20
928.0251114746468
 30
0.0
 11
851.0013808658412
 21
957.8649274435083
 31
0.0
  0
LINE
  5
1458
330
1F
100
AcDbEntity
  8
0
100
AcDbLine
 10
876.4461561848046
 20
925.025111474647
 30
0.0
 11
876.4461561848051
 21
928.0251114746468
 31
0.0
  0
LINE
  5
1459
330
1F
100
AcDbEntity
  8
0
100
AcDbLine
 10
884.1428674738821
 20
928.0251114746468
 30
0.0
 11
890.7970694253027
 21
951.1644925398286
 31
0.0
  0
LINE
  5
145A
330
1F
100
AcDbEntity
  8
0
100
AcDbLine
 10
1016.446156184805
 20
928.0251114746468
 30
0.0
 11
1016.446156184805
 21
930.0088458601404
 31
0.0
  0
LINE
  5
145B
330
1F
100
AcDbEntity
  8
0
100
AcDbLine
 10
1006.446156184805
 20
928.0251114746468
 30
0.0
 11
1006.446156184805
 21
925.025111474647
 31
0.0
  0
LINE
  5
145C
330
1F
100
AcDbEntity
  8
0
100
AcDbLine
 10
996.4461561848047
 20
928.0251114746468
 30
0.0
 11
991.7567295500756
 21
934.1658262256887
 31
0.0
  0
LINE
  5
145D
330
1F
100
AcDbEntity
  8
0
100
AcDbLine
 10
876.4461561848046
 20
925.025111474647
 30
0.0
 11
866.4461561848046
 21
925.025111474647
 31
0.0
  0
LINE
  5
145E
330
1F
100
AcDbEntity
  8
0
100
AcDbLine
 10
1006.446156184805
 20
928.0251114746468
 30
0.0
 11
996.4461561848047
 21
928.0251114746468
 31
0.0
  0
LINE
  5
145F
330
1F
100
AcDbEntity
  8
0
100
AcDbLine
 10
876.4461561848051
 20
928.0251114746468
 30
0.0
 11
884.1428674738821
 21
928.0251114746468
 31
0.0
  0
LINE
  5
1460
330
1F
100
AcDbEntity
  8
0
100
AcDbLine
 10
890.7970694253027
 20
951.1644925398286
 30
0.0
 11
991.7567295500756
 21
934.1658262256887
 31
0.0
  0
LINE
  5
1461
330
1F
100
AcDbEntity
  8
0
100
AcDbLine
 10
1016.446156184805
 20
930.0088458601404
 30
0.0
 11
1134.235897583065
 21
910.176484035791
 31
0.0
  0
LINE
  5
146C
330
1F
100
AcDbEntity
  8
0
100
AcDbLine
 10
1344.964224655325
 20
930.0088458601404
 30
0.0
 11
1227.174483257066
 21
910.176484035791
 31
0.0
  0
LINE
  5
146D
330
1F
100
AcDbEntity
  8
0
100
AcDbLine
 10
1470.613311414828
 20
951.1644925398286
 30
0.0
 11
1369.653651290055
 21
934.1658262256887
 31
0.0
  0
LINE
  5
146E
330
1F
100
AcDbEntity
  8
0
100
AcDbLine
 10
1484.964224655325
 20
928.0251114746468
 30
0.0
 11
1477.267513366248
 21
928.0251114746468
 31
0.0
  0
LINE
  5
146F
330
1F
100
AcDbEntity
  8
0
100
AcDbLine
 10
1354.964224655326
 20
928.0251114746468
 30
0.0
 11
1364.964224655326
 21
928.0251114746468
 31
0.0
  0
LINE
  5
1470
330
1F
100
AcDbEntity
  8
0
100
AcDbLine
 10
1484.964224655326
 20
925.025111474647
 30
0.0
 11
1494.964224655326
 21
925.025111474647
 31
0.0
  0
LINE
  5
1471
330
1F
100
AcDbEntity
  8
0
100
AcDbLine
 10
1364.964224655326
 20
928.0251114746468
 30
0.0
 11
1369.653651290055
 21
934.1658262256887
 31
0.0
  0
LINE
  5
1472
330
1F
100
AcDbEntity
  8
0
100
AcDbLine
 10
1354.964224655326
 20
928.0251114746468
 30
0.0
 11
1354.964224655326
 21
925.025111474647
 31
0.0
  0
LINE
  5
1473
330
1F
100
AcDbEntity
  8
0
100
AcDbLine
 10
1344.964224655326
 20
928.0251114746468
 30
0.0
 11
1344.964224655325
 21
930.0088458601404
 31
0.0
  0
LINE
  5
1474
330
1F
100
AcDbEntity
  8
0
100
AcDbLine
 10
1477.267513366248
 20
928.0251114746468
 30
0.0
 11
1470.613311414828
 21
951.1644925398286
 31
0.0
  0
LINE
  5
1475
330
1F
100
AcDbEntity
  8
0
100
AcDbLine
 10
1484.964224655326
 20
925.025111474647
 30
0.0
 11
1484.964224655325
 21
928.0251114746468
 31
0.0
  0
LINE
  5
1476
330
1F
100
AcDbEntity
  8
0
100
AcDbLine
 10
1494.964224655326
 20
928.0251114746468
 30
0.0
 11
1510.408999974289
 21
957.8649274435083
 31
0.0
  0
LINE
  5
1477
330
1F
100
AcDbEntity
  8
0
100
AcDbLine
 10
1494.964224655326
 20
925.025111474647
 30
0.0
 11
1494.964224655326
 21
928.0251114746468
 31
0.0
  0
LINE
  5
1478
330
1F
100
AcDbEntity
  8
0
100
AcDbLine
 10
1494.964224655326
 20
925.025111474647
 30
0.0
 11
1494.964224655326
 21
925.025111474647
 31
0.0
  0
LINE
  5
1479
330
1F
100
AcDbEntity
  8
0
100
AcDbLine
 10
1344.964224655326
 20
925.025111474647
 30
0.0
 11
1354.964224655326
 21
925.025111474647
 31
0.0
  0
LINE
  5
147A
330
1F
100
AcDbEntity
  8
0
100
AcDbLine
 10
1344.964224655326
 20
928.0251114746468
 30
0.0
 11
1344.964224655326
 21
925.025111474647
 31
0.0
  0
LINE
  5
147B
330
1F
100
AcDbEntity
  8
0
100
AcDbLine
 10
1179.203928993088
 20
912.7892587483438
 30
0.0
 11
1182.206451847042
 21
912.7931557467396
 31
0.0
  0
LINE
  5
147C
330
1F
100
AcDbEntity
  8
0
100
AcDbLine
 10
1179.206454377936
 20
892.789258907783
 30
0.0
 11
1179.203928993088
 21
912.7892587483438
 31
0.0
  0
LINE
  5
147D
330
1F
100
AcDbEntity
  8
0
100
AcDbLine
 10
1182.206451847042
 20
912.7931557467396
 30
0.0
 11
1182.206451847042
 21
892.7931557467395
 31
0.0
  0
LINE
  5
147E
330
1F
100
AcDbEntity
  8
0
100
AcDbLine
 10
1182.206451847042
 20
952.7970527451346
 30
0.0
 11
1182.206451847042
 21
932.7970527451347
 31
0.0
  0
LINE
  5
147F
330
1F
100
AcDbEntity
  8
0
100
AcDbLine
 10
1182.206451847042
 20
932.7970527451347
 30
0.0
 11
1179.206454377936
 21
932.7931559061784
 31
0.0
  0
LINE
  5
1480
330
1F
100
AcDbEntity
  8
0
100
AcDbLine
 10
1179.206454377936
 20
932.7931559061784
 30
0.0
 11
1179.203928993088
 21
952.7931557467397
 31
0.0
  0
LINE
  5
1481
330
1F
100
AcDbEntity
  8
0
100
AcDbLine
 10
1179.203928993088
 20
952.7931557467397
 30
0.0
 11
1182.206451847042
 21
952.7970527451346
 31
0.0
  0
LINE
  5
1482
330
1F
100
AcDbEntity
  8
0
100
AcDbLine
 10
1179.203928993088
 20
1132.793144367498
 30
0.0
 11
1182.206451847042
 21
1132.797041365893
 31
0.0
  0
LINE
  5
1483
330
1F
100
AcDbEntity
  8
0
100
AcDbLine
 10
1179.206454377936
 20
1112.793144526937
 30
0.0
 11
1179.203928993088
 21
1132.793144367498
 31
0.0
  0
LINE
  5
1484
330
1F
100
AcDbEntity
  8
0
100
AcDbLine
 10
1182.206451847042
 20
1112.797041365893
 30
0.0
 11
1179.206454377936
 21
1112.793144526937
 31
0.0
  0
LINE
  5
1485
330
1F
100
AcDbEntity
  8
0
100
AcDbLine
 10
1182.206451847042
 20
1132.797041365893
 30
0.0
 11
1182.206451847042
 21
1112.797041365893
 31
0.0
  0
LINE
  5
1486
330
1F
100
AcDbEntity
  8
0
100
AcDbLine
 10
1182.206451847042
 20
1092.793144367498
 30
0.0
 11
1182.206451847042
 21
1072.793144367498
 31
0.0
  0
LINE
  5
1487
330
1F
100
AcDbEntity
  8
0
100
AcDbLine
 10
1182.206451847042
 20
1072.793144367498
 30
0.0
 11
1179.206454377936
 21
1072.789247528541
 31
0.0
  0
LINE
  5
1488
330
1F
100
AcDbEntity
  8
0
100
AcDbLine
 10
1179.206454377936
 20
1072.789247528541
 30
0.0
 11
1179.203928993088
 21
1092.789247369102
 31
0.0
  0
LINE
  5
1489
330
1F
100
AcDbEntity
  8
0
100
AcDbLine
 10
1179.203928993088
 20
1092.789247369102
 30
0.0
 11
1182.206451847042
 21
1092.793144367498
 31
0.0
  0
LINE
  5
148A
330
1F
100
AcDbEntity
  8
0
100
AcDbLine
 10
1240.705190420065
 20
1149.026772772535
 30
0.0
 11
1180.705190420065
 21
1163.060988861099
 31
0.0
  0
LINE
  5
148B
330
1F
100
AcDbEntity
  8
0
100
AcDbLine
 10
1227.174483257066
 20
910.176484035791
 30
0.0
 11
1220.176393099831
 21
1000.383375312885
 31
0.0
  0
LINE
  5
148C
330
1F
100
AcDbEntity
  8
0
100
AcDbLine
 10
1180.705190420065
 20
870.8289520319572
 30
0.0
 11
1227.174483257066
 21
910.176484035791
 31
0.0
  0
LINE
  5
148D
330
1F
100
AcDbEntity
  8
0
100
AcDbLine
 10
1182.206451847042
 20
1092.789247369102
 30
0.0
 11
1179.203928993088
 21
1092.793144367498
 31
0.0
  0
LINE
  5
148E
330
1F
100
AcDbEntity
  8
0
100
AcDbLine
 10
1182.203926462194
 20
1072.789247528541
 30
0.0
 11
1182.206451847042
 21
1092.789247369102
 31
0.0
  0
LINE
  5
148F
330
1F
100
AcDbEntity
  8
0
100
AcDbLine
 10
1179.203928993088
 20
1072.793144367498
 30
0.0
 11
1182.203926462194
 21
1072.789247528541
 31
0.0
  0
LINE
  5
1490
330
1F
100
AcDbEntity
  8
0
100
AcDbLine
 10
1179.203928993088
 20
1092.793144367498
 30
0.0
 11
1179.203928993088
 21
1072.793144367498
 31
0.0
  0
LINE
  5
1491
330
1F
100
AcDbEntity
  8
0
100
AcDbLine
 10
1179.203928993088
 20
1132.797041365893
 30
0.0
 11
1179.203928993088
 21
1112.797041365893
 31
0.0
  0
LINE
  5
1492
330
1F
100
AcDbEntity
  8
0
100
AcDbLine
 10
1179.203928993088
 20
1112.797041365893
 30
0.0
 11
1182.203926462194
 21
1112.793144526937
 31
0.0
  0
LINE
  5
1493
330
1F
100
AcDbEntity
  8
0
100
AcDbLine
 10
1182.203926462194
 20
1112.793144526937
 30
0.0
 11
1182.206451847042
 21
1132.793144367498
 31
0.0
  0
LINE
  5
1494
330
1F
100
AcDbEntity
  8
0
100
AcDbLine
 10
1182.206451847042
 20
1132.793144367498
 30
0.0
 11
1179.203928993088
 21
1132.797041365893
 31
0.0
  0
LINE
  5
1495
330
1F
100
AcDbEntity
  8
0
100
AcDbLine
 10
1182.206451847042
 20
952.7931557467397
 30
0.0
 11
1179.203928993088
 21
952.7970527451346
 31
0.0
  0
LINE
  5
1496
330
1F
100
AcDbEntity
  8
0
100
AcDbLine
 10
1182.203926462194
 20
932.7931559061784
 30
0.0
 11
1182.206451847042
 21
952.7931557467397
 31
0.0
  0
LINE
  5
1497
330
1F
100
AcDbEntity
  8
0
100
AcDbLine
 10
1179.203928993088
 20
932.7970527451347
 30
0.0
 11
1182.203926462194
 21
932.7931559061784
 31
0.0
  0
LINE
  5
1498
330
1F
100
AcDbEntity
  8
0
100
AcDbLine
 10
1179.203928993088
 20
952.7970527451346
 30
0.0
 11
1179.203928993088
 21
932.7970527451347
 31
0.0
  0
LINE
  5
1499
330
1F
100
AcDbEntity
  8
0
100
AcDbLine
 10
1179.203928993088
 20
912.7931557467396
 30
0.0
 11
1179.203928993088
 21
892.7931557467395
 31
0.0
  0
LINE
  5
149A
330
1F
100
AcDbEntity
  8
0
100
AcDbLine
 10
1182.203926462194
 20
892.789258907783
 30
0.0
 11
1182.206451847042
 21
912.7892587483438
 31
0.0
  0
LINE
  5
149B
330
1F
100
AcDbEntity
  8
0
100
AcDbLine
 10
1182.206451847042
 20
912.7892587483438
 30
0.0
 11
1179.203928993088
 21
912.7931557467396
 31
0.0
  0
LINE
  5
149C
330
1F
100
AcDbEntity
  8
0
100
AcDbLine
 10
1433.933365676791
 20
1037.195294378946
 30
0.0
 11
1436.935888530746
 21
1037.199191377342
 31
0.0
  0
LINE
  5
149D
330
1F
100
AcDbEntity
  8
0
100
AcDbLine
 10
1433.933365676791
 20
1057.195294378946
 30
0.0
 11
1436.935888530746
 21
1057.199191377342
 31
0.0
  0
LINE
  5
149E
330
1F
100
AcDbEntity
  8
0
100
AcDbLine
 10
1433.935891061639
 20
1037.195294538386
 30
0.0
 11
1433.933365676791
 21
1057.195294378946
 31
0.0
  0
LINE
  5
149F
330
1F
100
AcDbEntity
  8
0
100
AcDbLine
 10
1436.935888530746
 20
1037.199191377342
 30
0.0
 11
1433.935891061639
 21
1037.195294538386
 31
0.0
  0
LINE
  5
14A0
330
1F
100
AcDbEntity
  8
0
100
AcDbLine
 10
1436.935888530747
 20
1142.566425615821
 30
0.0
 11
1436.935888530746
 21
1122.566425615821
 31
0.0
  0
LINE
  5
14A1
330
1F
100
AcDbEntity
  8
0
100
AcDbLine
 10
1436.935888530746
 20
1122.566425615821
 30
0.0
 11
1433.93589106164
 21
1122.562528776865
 31
0.0
  0
LINE
  5
14A2
330
1F
100
AcDbEntity
  8
0
100
AcDbLine
 10
1433.93589106164
 20
1122.562528776865
 30
0.0
 11
1433.933350725258
 21
1142.680938562161
 31
0.0
  0
LINE
  5
14A3
330
1F
100
AcDbEntity
  8
0
100
AcDbLine
 10
1436.935888530746
 20
1057.199191377342
 30
0.0
 11
1436.935888530746
 21
1037.199191377342
 31
0.0
  0
LINE
  5
14A4
330
1F
100
AcDbEntity
  8
0
100
AcDbLine
 10
1436.935888530746
 20
1142.566425615821
 30
0.0
 11
1436.935888530746
 21
1122.566425615821
 31
0.0
  0
SPLINE
  5
14A5
330
1F
100
AcDbEntity
  8
0
100
AcDbSpline
210
0.0
220
0.0
230
1.0
 70
     8
 71
     3
 72
    14
 73
    10
 74
     8
 42
0.0000000001
 43
0.0000000001
 44
0.0000000001
 40
0.0
 40
0.0
 40
0.0
 40
0.0
 40
57.17917697868266
 40
77.901566243996
 40
106.3769453457043
 40
141.4582729619774
 40
175.6918604714573
 40
215.6803874279522
 40
261.0412713438075
 40
261.0412713438075
 40
261.0412713438075
 40
261.0412713438075
 10
1595.036379224982
 20
972.1137133362582
 30
0.0
 10
1594.24275901341
 20
991.1526197611545
 30
0.0
 10
1593.161521738738
 20
1017.091444145164
 30
0.0
 10
1586.006001276638
 20
1052.19585406182
 30
0.0
 10
1570.482206871063
 20
1076.157553495236
 30
0.0
 10
1548.371949673544
 20
1100.578723915618
 30
0.0
 10
1516.312671924391
 20
1118.439591479766
 30
0.0
 10
1480.417159480523
 20
1136.452061578144
 30
0.0
 10
1452.025357093743
 20
1140.444534927855
 30
0.0
 10
1436.935888530746
 20
1142.566425615821
 30
0.0
 11
1595.036379224982
 21
972.1137133362582
 31
0.0
 11
1590.414949095213
 21
1029.105823873728
 31
0.0
 11
1585.506906241529
 21
1049.238596464943
 31
0.0
 11
1571.164389860122
 21
1073.838178551537
 31
0.0
 11
1546.987010702351
 21
1099.257735675564
 31
0.0
 11
1517.892197508006
 21
1117.297424113987
 31
0.0
 11
1481.421230610406
 21
1133.69714550505
 31
0.0
 11
1436.935888530746
 21
1142.566425615821
 31
0.0
  0
LINE
  5
14A6
330
1F
100
AcDbEntity
  8
0
100
AcDbLine
 10
1220.176393099831
 20
1000.383375312885
 30
0.0
 11
1590.414949095213
 21
1029.105823873728
 31
0.0
  0
LINE
  5
14A7
330
1F
100
AcDbEntity
  8
0
100
AcDbLine
 10
1595.036379224982
 20
972.1137133362582
 30
0.0
 11
1510.40899997429
 21
957.8649274435083
 31
0.0
  0
LINE
  5
14A8
330
1F
100
AcDbEntity
  8
0
100
AcDbLine
 10
1433.933350725258
 20
1142.680938562161
 30
0.0
 11
1240.705190420065
 21
1149.026772772535
 31
0.0
  0
LINE
  5
14B4
330
1F
100
AcDbEntity
  8
0
100
AcDbLine
 10
1759.517464172693
 20
1509.675333151234
 30
0.0
 11
1787.757333255482
 21
1544.581067915829
 31
0.0
  0
LINE
  5
14B6
330
1F
100
AcDbEntity
  8
0
100
AcDbLine
 10
1754.514311393867
 20
1472.275748287962
 30
0.0
 11
1918.522888174891
 21
1472.275748287962
 31
0.0
  0
LINE
  5
14B9
330
1F
100
AcDbEntity
  8
0
100
AcDbLine
 10
1756.01872559967
 20
1338.347359335765
 30
0.0
 11
1753.016202745715
 21
1338.343462337369
 31
0.0
  0
LINE
  5
14BA
330
1F
100
AcDbEntity
  8
0
100
AcDbLine
 10
1756.016200214822
 20
1358.347359176325
 30
0.0
 11
1756.01872559967
 21
1338.347359335765
 31
0.0
  0
LINE
  5
14BB
330
1F
100
AcDbEntity
  8
0
100
AcDbLine
 10
1753.016202745715
 20
1358.343462337369
 30
0.0
 11
1756.016200214822
 21
1358.347359176325
 31
0.0
  0
LINE
  5
14BC
330
1F
100
AcDbEntity
  8
0
100
AcDbLine
 10
1753.016202745715
 20
1338.343462337369
 30
0.0
 11
1753.016202745715
 21
1358.343462337369
 31
0.0
  0
LINE
  5
14BD
330
1F
100
AcDbEntity
  8
0
100
AcDbLine
 10
1753.016202745715
 20
1298.339565338973
 30
0.0
 11
1753.016202745715
 21
1318.339565338973
 31
0.0
  0
LINE
  5
14BE
330
1F
100
AcDbEntity
  8
0
100
AcDbLine
 10
1753.016202745715
 20
1318.339565338973
 30
0.0
 11
1756.016200214822
 21
1318.34346217793
 31
0.0
  0
LINE
  5
14BF
330
1F
100
AcDbEntity
  8
0
100
AcDbLine
 10
1756.016200214822
 20
1318.34346217793
 30
0.0
 11
1756.01872559967
 21
1298.343462337369
 31
0.0
  0
LINE
  5
14C0
330
1F
100
AcDbEntity
  8
0
100
AcDbLine
 10
1756.01872559967
 20
1298.343462337369
 30
0.0
 11
1753.016202745715
 21
1298.339565338973
 31
0.0
  0
LINE
  5
14C1
330
1F
100
AcDbEntity
  8
0
100
AcDbLine
 10
1756.01872559967
 20
1403.339565338973
 30
0.0
 11
1753.016202745715
 21
1403.335668340578
 31
0.0
  0
LINE
  5
14C2
330
1F
100
AcDbEntity
  8
0
100
AcDbLine
 10
1756.016200214822
 20
1423.339565179534
 30
0.0
 11
1756.01872559967
 21
1403.339565338973
 31
0.0
  0
LINE
  5
14C3
330
1F
100
AcDbEntity
  8
0
100
AcDbLine
 10
1753.016202745715
 20
1423.335668340578
 30
0.0
 11
1756.016200214822
 21
1423.339565179534
 31
0.0
  0
LINE
  5
14C4
330
1F
100
AcDbEntity
  8
0
100
AcDbLine
 10
1753.016202745715
 20
1403.335668340578
 30
0.0
 11
1753.016202745715
 21
1423.335668340578
 31
0.0
  0
LINE
  5
14C5
330
1F
100
AcDbEntity
  8
0
100
AcDbLine
 10
1753.016202745715
 20
1443.339565338973
 30
0.0
 11
1753.016202745715
 21
1463.339565338973
 31
0.0
  0
LINE
  5
14C6
330
1F
100
AcDbEntity
  8
0
100
AcDbLine
 10
1753.016202745715
 20
1463.339565338973
 30
0.0
 11
1756.016200214822
 21
1463.343462177929
 31
0.0
  0
LINE
  5
14C7
330
1F
100
AcDbEntity
  8
0
100
AcDbLine
 10
1756.016200214822
 20
1463.343462177929
 30
0.0
 11
1756.01872559967
 21
1443.343462337369
 31
0.0
  0
LINE
  5
14C8
330
1F
100
AcDbEntity
  8
0
100
AcDbLine
 10
1756.01872559967
 20
1443.343462337369
 30
0.0
 11
1753.016202745715
 21
1443.339565338973
 31
0.0
  0
LINE
  5
14C9
330
1F
100
AcDbEntity
  8
0
100
AcDbLine
 10
1756.01872559967
 20
1338.347359335765
 30
0.0
 11
1753.016202745715
 21
1338.343462337369
 31
0.0
  0
LINE
  5
14CA
330
1F
100
AcDbEntity
  8
0
100
AcDbLine
 10
1756.016200214822
 20
1358.347359176325
 30
0.0
 11
1756.01872559967
 21
1338.347359335765
 31
0.0
  0
LINE
  5
14CB
330
1F
100
AcDbEntity
  8
0
100
AcDbLine
 10
1753.016202745715
 20
1358.343462337369
 30
0.0
 11
1756.016200214822
 21
1358.347359176325
 31
0.0
  0
LINE
  5
14CC
330
1F
100
AcDbEntity
  8
0
100
AcDbLine
 10
1753.016202745715
 20
1338.343462337369
 30
0.0
 11
1753.016202745715
 21
1358.343462337369
 31
0.0
  0
LINE
  5
14CD
330
1F
100
AcDbEntity
  8
0
100
AcDbLine
 10
1753.016202745715
 20
1298.339565338973
 30
0.0
 11
1753.016202745715
 21
1318.339565338973
 31
0.0
  0
LINE
  5
14CE
330
1F
100
AcDbEntity
  8
0
100
AcDbLine
 10
1753.016202745715
 20
1318.339565338973
 30
0.0
 11
1756.016200214822
 21
1318.34346217793
 31
0.0
  0
LINE
  5
14CF
330
1F
100
AcDbEntity
  8
0
100
AcDbLine
 10
1756.016200214822
 20
1318.34346217793
 30
0.0
 11
1756.01872559967
 21
1298.343462337369
 31
0.0
  0
LINE
  5
14D0
330
1F
100
AcDbEntity
  8
0
100
AcDbLine
 10
1756.01872559967
 20
1298.343462337369
 30
0.0
 11
1753.016202745715
 21
1298.339565338973
 31
0.0
  0
LINE
  5
14D1
330
1F
100
AcDbEntity
  8
0
100
AcDbLine
 10
1756.01872559967
 20
1193.347359335765
 30
0.0
 11
1753.016202745715
 21
1193.343462337368
 31
0.0
  0
LINE
  5
14D2
330
1F
100
AcDbEntity
  8
0
100
AcDbLine
 10
1756.016200214822
 20
1213.347359176325
 30
0.0
 11
1756.01872559967
 21
1193.347359335765
 31
0.0
  0
LINE
  5
14D3
330
1F
100
AcDbEntity
  8
0
100
AcDbLine
 10
1753.016202745715
 20
1213.343462337369
 30
0.0
 11
1756.016200214822
 21
1213.347359176325
 31
0.0
  0
LINE
  5
14D4
330
1F
100
AcDbEntity
  8
0
100
AcDbLine
 10
1753.016202745715
 20
1193.343462337368
 30
0.0
 11
1753.016202745715
 21
1213.343462337369
 31
0.0
  0
LINE
  5
14D5
330
1F
100
AcDbEntity
  8
0
100
AcDbLine
 10
1753.016202745715
 20
1233.347359335765
 30
0.0
 11
1753.016202745715
 21
1253.347359335765
 31
0.0
  0
LINE
  5
14D6
330
1F
100
AcDbEntity
  8
0
100
AcDbLine
 10
1753.016202745715
 20
1253.347359335765
 30
0.0
 11
1756.016200214822
 21
1253.351256174721
 31
0.0
  0
LINE
  5
14D7
330
1F
100
AcDbEntity
  8
0
100
AcDbLine
 10
1756.016200214822
 20
1253.351256174721
 30
0.0
 11
1756.01872559967
 21
1233.35125633416
 31
0.0
  0
LINE
  5
14D8
330
1F
100
AcDbEntity
  8
0
100
AcDbLine
 10
1756.01872559967
 20
1233.35125633416
 30
0.0
 11
1753.016202745715
 21
1233.347359335765
 31
0.0
  0
LINE
  5
14E2
330
1F
100
AcDbEntity
  8
0
100
AcDbLine
 10
1754.517464172693
 20
1492.275748287962
 30
0.0
 11
1759.517464172693
 21
1492.275748287962
 31
0.0
  0
LINE
  5
14E3
330
1F
100
AcDbEntity
  8
0
100
AcDbLine
 10
1759.517464172693
 20
1492.275748287962
 30
0.0
 11
1759.517464172693
 21
1509.675333151234
 31
0.0
  0
LINE
  5
14E5
330
1F
100
AcDbEntity
  8
0
100
AcDbLine
 10
1784.82359280331
 20
1411.283666894899
 30
0.0
 11
1800.986757009693
 21
1125.964031262635
 31
0.0
  0
LINE
  5
14E6
330
1F
100
AcDbEntity
  8
0
100
AcDbLine
 10
1754.517464172693
 20
1165.311563266468
 30
0.0
 11
1800.986757009693
 21
1125.964031262635
 31
0.0
  0
LINE
  5
14E7
330
1F
100
AcDbEntity
  8
0
100
AcDbLine
 10
1754.517464172693
 20
1165.311563266468
 30
0.0
 11
1708.048171335692
 21
1125.964031262635
 31
0.0
  0
LINE
  5
14E8
330
1F
100
AcDbEntity
  8
0
100
AcDbLine
 10
1724.211335542074
 20
1411.2836668949
 30
0.0
 11
1708.048171335692
 21
1125.964031262635
 31
0.0
  0
LINE
  5
14EA
330
1F
100
AcDbEntity
  8
0
100
AcDbLine
 10
1749.517464172692
 20
1492.275748287962
 30
0.0
 11
1749.517464172692
 21
1509.675333151234
 31
0.0
  0
LINE
  5
14EB
330
1F
100
AcDbEntity
  8
0
100
AcDbLine
 10
1754.517464172693
 20
1492.275748287962
 30
0.0
 11
1749.517464172692
 21
1492.275748287962
 31
0.0
  0
LINE
  5
14F5
330
1F
100
AcDbEntity
  8
0
100
AcDbLine
 10
1753.016202745715
 20
1233.35125633416
 30
0.0
 11
1756.01872559967
 21
1233.347359335765
 31
0.0
  0
LINE
  5
14F6
330
1F
100
AcDbEntity
  8
0
100
AcDbLine
 10
1753.018728130563
 20
1253.351256174721
 30
0.0
 11
1753.016202745715
 21
1233.35125633416
 31
0.0
  0
LINE
  5
14F7
330
1F
100
AcDbEntity
  8
0
100
AcDbLine
 10
1756.01872559967
 20
1253.347359335765
 30
0.0
 11
1753.018728130563
 21
1253.351256174721
 31
0.0
  0
LINE
  5
14F8
330
1F
100
AcDbEntity
  8
0
100
AcDbLine
 10
1756.01872559967
 20
1233.347359335765
 30
0.0
 11
1756.01872559967
 21
1253.347359335765
 31
0.0
  0
LINE
  5
14F9
330
1F
100
AcDbEntity
  8
0
100
AcDbLine
 10
1756.01872559967
 20
1193.343462337368
 30
0.0
 11
1756.01872559967
 21
1213.343462337369
 31
0.0
  0
LINE
  5
14FA
330
1F
100
AcDbEntity
  8
0
100
AcDbLine
 10
1756.01872559967
 20
1213.343462337369
 30
0.0
 11
1753.018728130563
 21
1213.347359176325
 31
0.0
  0
LINE
  5
14FB
330
1F
100
AcDbEntity
  8
0
100
AcDbLine
 10
1753.018728130563
 20
1213.347359176325
 30
0.0
 11
1753.016202745715
 21
1193.347359335765
 31
0.0
  0
LINE
  5
14FC
330
1F
100
AcDbEntity
  8
0
100
AcDbLine
 10
1753.016202745715
 20
1193.347359335765
 30
0.0
 11
1756.01872559967
 21
1193.343462337368
 31
0.0
  0
LINE
  5
14FD
330
1F
100
AcDbEntity
  8
0
100
AcDbLine
 10
1753.016202745715
 20
1298.343462337369
 30
0.0
 11
1756.01872559967
 21
1298.339565338973
 31
0.0
  0
LINE
  5
14FE
330
1F
100
AcDbEntity
  8
0
100
AcDbLine
 10
1753.018728130563
 20
1318.34346217793
 30
0.0
 11
1753.016202745715
 21
1298.343462337369
 31
0.0
  0
LINE
  5
14FF
330
1F
100
AcDbEntity
  8
0
100
AcDbLine
 10
1756.01872559967
 20
1318.339565338973
 30
0.0
 11
1753.018728130563
 21
1318.34346217793
 31
0.0
  0
LINE
  5
1500
330
1F
100
AcDbEntity
  8
0
100
AcDbLine
 10
1756.01872559967
 20
1298.339565338973
 30
0.0
 11
1756.01872559967
 21
1318.339565338973
 31
0.0
  0
LINE
  5
1501
330
1F
100
AcDbEntity
  8
0
100
AcDbLine
 10
1756.01872559967
 20
1338.343462337369
 30
0.0
 11
1756.01872559967
 21
1358.343462337369
 31
0.0
  0
LINE
  5
1502
330
1F
100
AcDbEntity
  8
0
100
AcDbLine
 10
1756.01872559967
 20
1358.343462337369
 30
0.0
 11
1753.018728130563
 21
1358.347359176325
 31
0.0
  0
LINE
  5
1503
330
1F
100
AcDbEntity
  8
0
100
AcDbLine
 10
1753.018728130563
 20
1358.347359176325
 30
0.0
 11
1753.016202745715
 21
1338.347359335765
 31
0.0
  0
LINE
  5
1504
330
1F
100
AcDbEntity
  8
0
100
AcDbLine
 10
1753.016202745715
 20
1338.347359335765
 30
0.0
 11
1756.01872559967
 21
1338.343462337369
 31
0.0
  0
LINE
  5
1505
330
1F
100
AcDbEntity
  8
0
100
AcDbLine
 10
1753.016202745715
 20
1443.343462337369
 30
0.0
 11
1756.01872559967
 21
1443.339565338973
 31
0.0
  0
LINE
  5
1506
330
1F
100
AcDbEntity
  8
0
100
AcDbLine
 10
1753.018728130563
 20
1463.343462177929
 30
0.0
 11
1753.016202745715
 21
1443.343462337369
 31
0.0
  0
LINE
  5
1507
330
1F
100
AcDbEntity
  8
0
100
AcDbLine
 10
1756.01872559967
 20
1463.339565338973
 30
0.0
 11
1753.018728130563
 21
1463.343462177929
 31
0.0
  0
LINE
  5
1508
330
1F
100
AcDbEntity
  8
0
100
AcDbLine
 10
1756.01872559967
 20
1443.339565338973
 30
0.0
 11
1756.01872559967
 21
1463.339565338973
 31
0.0
  0
LINE
  5
1509
330
1F
100
AcDbEntity
  8
0
100
AcDbLine
 10
1756.01872559967
 20
1403.335668340578
 30
0.0
 11
1756.01872559967
 21
1423.335668340578
 31
0.0
  0
LINE
  5
150A
330
1F
100
AcDbEntity
  8
0
100
AcDbLine
 10
1756.01872559967
 20
1423.335668340578
 30
0.0
 11
1753.018728130563
 21
1423.339565179534
 31
0.0
  0
LINE
  5
150B
330
1F
100
AcDbEntity
  8
0
100
AcDbLine
 10
1753.018728130563
 20
1423.339565179534
 30
0.0
 11
1753.016202745715
 21
1403.339565338973
 31
0.0
  0
LINE
  5
150C
330
1F
100
AcDbEntity
  8
0
100
AcDbLine
 10
1753.016202745715
 20
1403.339565338973
 30
0.0
 11
1756.01872559967
 21
1403.335668340578
 31
0.0
  0
LINE
  5
150D
330
1F
100
AcDbEntity
  8
0
100
AcDbLine
 10
1753.016202745715
 20
1298.343462337369
 30
0.0
 11
1756.01872559967
 21
1298.339565338973
 31
0.0
  0
LINE
  5
150E
330
1F
100
AcDbEntity
  8
0
100
AcDbLine
 10
1753.018728130563
 20
1318.34346217793
 30
0.0
 11
1753.016202745715
 21
1298.343462337369
 31
0.0
  0
LINE
  5
150F
330
1F
100
AcDbEntity
  8
0
100
AcDbLine
 10
1756.01872559967
 20
1318.339565338973
 30
0.0
 11
1753.018728130563
 21
1318.34346217793
 31
0.0
  0
LINE
  5
1510
330
1F
100
AcDbEntity
  8
0
100
AcDbLine
 10
1756.01872559967
 20
1298.339565338973
 30
0.0
 11
1756.01872559967
 21
1318.339565338973
 31
0.0
  0
LINE
  5
1511
330
1F
100
AcDbEntity
  8
0
100
AcDbLine
 10
1756.01872559967
 20
1338.343462337369
 30
0.0
 11
1756.01872559967
 21
1358.343462337369
 31
0.0
  0
LINE
  5
1512
330
1F
100
AcDbEntity
  8
0
100
AcDbLine
 10
1756.01872559967
 20
1358.343462337369
 30
0.0
 11
1753.018728130563
 21
1358.347359176325
 31
0.0
  0
LINE
  5
1513
330
1F
100
AcDbEntity
  8
0
100
AcDbLine
 10
1753.018728130563
 20
1358.347359176325
 30
0.0
 11
1753.016202745715
 21
1338.347359335765
 31
0.0
  0
LINE
  5
1514
330
1F
100
AcDbEntity
  8
0
100
AcDbLine
 10
1753.016202745715
 20
1338.347359335765
 30
0.0
 11
1756.01872559967
 21
1338.343462337369
 31
0.0
  0
SPLINE
  5
1515
330
1F
100
AcDbEntity
  8
0
100
AcDbSpline
210
0.0
220
0.0
230
1.0
 70
     8
 71
     3
 72
    11
 73
     7
 74
     5
 42
0.0000000001
 43
0.0000000001
 44
0.0000000001
 40
0.0
 40
0.0
 40
0.0
 40
0.0
 40
48.63902125983474
 40
69.85863874310784
 40
93.15087236406013
 40
118.5105560979597
 40
118.5105560979597
 40
118.5105560979597
 40
118.5105560979597
 10
1571.057320051106
 20
1515.648791309966
 30
0.0
 10
1570.898767604932
 20
1499.028340243194
 30
0.0
 10
1570.671043901366
 20
1475.156928838377
 30
0.0
 10
1587.79978717721
 20
1447.66371586028
 30
0.0
 10
1609.058225434045
 20
1436.69455688585
 30
0.0
 10
1624.359235615482
 20
1431.505403552125
 30
0.0
 10
1632.334846857692
 20
1428.800571049221
 30
0.0
 11
1571.057320051106
 21
1515.648791309966
 31
0.0
 11
1576.919187267045
 21
1467.364291707533
 31
0.0
 11
1588.636293552306
 21
1449.67300610031
 31
0.0
 11
1608.543495138683
 21
1437.580385538481
 31
0.0
 11
1632.334846857692
 21
1428.800571049221
 31
0.0
  0
LINE
  5
1517
330
1F
100
AcDbEntity
  8
0
100
AcDbLine
 10
1754.520616951519
 20
1472.275748287962
 30
0.0
 11
1590.512040170495
 21
1472.275748287962
 31
0.0
  0
LINE
  5
1519
330
1F
100
AcDbEntity
  8
0
100
AcDbLine
 10
1749.517464172692
 20
1509.675333151234
 30
0.0
 11
1721.277595089903
 21
1544.581067915829
 31
0.0
  0
LINE
  5
1594
330
1F
100
AcDbEntity
  8
0
100
AcDbLine
 10
935.1588055943487
 20
772.0609947460657
 30
0.0
 11
935.1588055943487
 21
792.8045597494031
 31
0.0
  0
LINE
  5
1595
330
1F
100
AcDbEntity
  8
0
100
AcDbLine
 10
932.158818062099
 20
772.0609947460657
 30
0.0
 11
932.1544033901364
 21
792.806735427897
 31
0.0
  0
LINE
  5
1596
330
1F
100
AcDbEntity
  8
0
100
AcDbLine
 10
935.158804931455
 20
752.0698679336333
 30
0.0
 11
935.158804931455
 21
686.7000334527322
 31
0.0
  0
LINE
  5
1597
330
1F
100
AcDbEntity
  8
0
100
AcDbLine
 10
932.1588187249927
 20
752.0698679336333
 30
0.0
 11
932.1588187249927
 21
686.6980850405686
 31
0.0
  0
LINE
  5
1598
330
1F
100
AcDbEntity
  8
0
100
AcDbLine
 10
933.6588118282238
 20
752.0653192790477
 30
0.0
 11
933.6588118282238
 21
772.0653192790478
 31
0.0
  0
LINE
  5
1599
330
1F
100
AcDbEntity
  8
0
100
AcDbLine
 10
933.6588118282238
 20
752.0653192790477
 30
0.0
 11
933.6588118282238
 21
772.0653192790478
 31
0.0
  0
LINE
  5
159A
330
1F
100
AcDbEntity
  8
0
100
AcDbLine
 10
933.6588118282238
 20
772.0653192790478
 30
0.0
 11
933.6588118282238
 21
772.0653192790478
 31
0.0
  0
LINE
  5
159B
330
1F
100
AcDbEntity
  8
0
100
AcDbLine
 10
933.6588118282238
 20
772.0653192790478
 30
0.0
 11
932.158818062099
 21
772.0609947460657
 31
0.0
  0
LINE
  5
159C
330
1F
100
AcDbEntity
  8
0
100
AcDbLine
 10
933.6588118282238
 20
752.0653192790477
 30
0.0
 11
932.1588187249927
 21
752.0698679336333
 31
0.0
  0
LINE
  5
159D
330
1F
100
AcDbEntity
  8
0
100
AcDbLine
 10
933.6588118282238
 20
752.0653192790477
 30
0.0
 11
935.158804931455
 21
752.0698679336333
 31
0.0
  0
LINE
  5
159E
330
1F
100
AcDbEntity
  8
0
100
AcDbLine
 10
933.6588118282238
 20
772.0653192790478
 30
0.0
 11
935.1588055943487
 21
772.0609947460657
 31
0.0
  0
LINE
  5
159F
330
1F
100
AcDbEntity
  8
0
100
AcDbLine
 10
933.6588118282238
 20
772.0653192790478
 30
0.0
 11
933.6588118282238
 21
772.0653192790478
 31
0.0
  0
LINE
  5
15A0
330
1F
100
AcDbEntity
  8
0
100
AcDbLine
 10
933.6588118282238
 20
752.0653192790477
 30
0.0
 11
933.6588118282238
 21
772.0653192790478
 31
0.0
  0
SPLINE
  5
15A1
330
1F
100
AcDbEntity
  8
0
100
AcDbSpline
210
0.0
220
0.0
230
1.0
 70
     8
 71
     3
 72
    11
 73
     7
 74
     5
 42
0.0000000001
 43
0.0000000001
 44
0.0000000001
 40
0.0
 40
0.0
 40
0.0
 40
0.0
 40
17.86304563789299
 40
43.12842028912766
 40
79.21128428777175
 40
158.1240557705999
 40
158.1240557705999
 40
158.1240557705999
 40
158.1240557705999
 10
933.6588118282238
 20
666.6980850405685
 30
0.0
 10
939.4755180979325
 20
668.7084796485804
 30
0.0
 10
953.5193355848139
 20
673.5623632112692
 30
0.0
 10
965.3208028136095
 20
699.7821255203851
 30
0.0
 10
970.5739067855953
 20
745.6505203041995
 30
0.0
 10
970.9866716576046
 20
784.1689159047762
 30
0.0
 10
971.2699208425384
 20
810.6011655913588
 30
0.0
 11
933.6588118282238
 21
666.6980850405685
 31
0.0
 11
949.8020429076142
 21
674.3456003088663
 31
0.0
 11
962.5485957625242
 21
696.1599200686992
 31
0.0
 11
968.5864321280847
 21
731.734034342527
 31
0.0
 11
971.2699208425384
 21
810.6011655913588
 31
0.0
  0
LINE
  5
15A2
330
1F
100
AcDbEntity
  8
0
100
AcDbLine
 10
935.1588055943487
 20
792.8045597494031
 30
0.0
 11
971.2699208425386
 21
810.6011655913588
 31
0.0
  0
LINE
  5
15A3
330
1F
100
AcDbEntity
  8
0
100
AcDbLine
 10
932.1544033901364
 20
792.806735427897
 30
0.0
 11
896.0477028139091
 21
810.6011655913588
 31
0.0
  0
SPLINE
  5
15A4
330
1F
100
AcDbEntity
  8
0
100
AcDbSpline
210
0.0
220
0.0
230
1.0
 70
     8
 71
     3
 72
    11
 73
     7
 74
     5
 42
0.0000000001
 43
0.0000000001
 44
0.0000000001
 40
0.0
 40
0.0
 40
0.0
 40
0.0
 40
17.86304563789299
 40
43.12842028912743
 40
79.21128428777163
 40
158.1240557705998
 40
158.1240557705998
 40
158.1240557705998
 40
158.1240557705998
 10
933.6588118282238
 20
666.6980850405685
 30
0.0
 10
927.842105558515
 20
668.7084796485804
 30
0.0
 10
913.7982880716334
 20
673.5623632112692
 30
0.0
 10
901.9968208428391
 20
699.7821255203854
 30
0.0
 10
896.7437168708512
 20
745.6505203041992
 30
0.0
 10
896.330951998842
 20
784.1689159047763
 30
0.0
 10
896.0477028139091
 20
810.6011655913588
 30
0.0
 11
933.6588118282238
 21
666.6980850405685
 31
0.0
 11
917.5155807488332
 21
674.3456003088663
 31
0.0
 11
904.7690278939237
 21
696.1599200686992
 31
0.0
 11
898.7311915283624
 21
731.734034342527
 31
0.0
 11
896.0477028139091
 21
810.6011655913588
 31
0.0
  0
LINE
  5
15A5
330
1F
100
AcDbEntity
  8
0
100
AcDbLine
 10
932.1588187249927
 20
686.6980850405686
 30
0.0
 11
935.158804931455
 21
686.7000334527322
 31
0.0
  0
LINE
  5
15A6
330
1F
100
AcDbEntity
  8
0
100
AcDbLine
 10
933.6588118282238
 20
752.0653192790477
 30
0.0
 11
933.6588118282238
 21
772.0653192790478
 31
0.0
  0
LINE
  5
15A7
330
1F
100
AcDbEntity
  8
0
100
AcDbLine
 10
1179.206454377936
 20
892.789258907783
 30
0.0
 11
1182.206451847042
 21
892.789258907783
 31
0.0
  0
LINE
  5
15E8
330
1F
100
AcDbEntity
  8
0
100
AcDbLine
 10
1954.567734635973
 20
1548.87406243383
 30
0.0
 11
1984.567734635973
 21
1548.87406243383
 31
0.0
  0
LINE
  5
15EC
330
1F
100
AcDbEntity
  8
0
100
AcDbLine
 10
1984.567734635973
 20
1548.87406243383
 30
0.0
 11
1984.567734635973
 21
848.8740624338298
 31
0.0
  0
LINE
  5
15ED
330
1F
100
AcDbEntity
  8
0
100
AcDbLine
 10
1984.567734635973
 20
848.8740624338298
 30
0.0
 11
1954.567734635973
 21
848.8740624338298
 31
0.0
  0
LINE
  5
15EE
330
1F
100
AcDbEntity
  8
0
100
AcDbLine
 10
1954.567734635973
 20
848.8740624338298
 30
0.0
 11
1954.567734635973
 21
1548.87406243383
 31
0.0
  0
LINE
  5
15EF
330
1F
100
AcDbEntity
  8
0
100
AcDbLine
 10
2017.918653380041
 20
1548.759307124617
 30
0.0
 11
2047.91865338004
 21
1548.759307124617
 31
0.0
  0
LINE
  5
15F0
330
1F
100
AcDbEntity
  8
0
100
AcDbLine
 10
2047.91865338004
 20
1548.759307124617
 30
0.0
 11
2047.91865338004
 21
848.7593071246173
 31
0.0
  0
LINE
  5
15F1
330
1F
100
AcDbEntity
  8
0
100
AcDbLine
 10
2047.91865338004
 20
848.7593071246173
 30
0.0
 11
2017.918653380041
 21
848.7593071246173
 31
0.0
  0
LINE
  5
15F2
330
1F
100
AcDbEntity
  8
0
100
AcDbLine
 10
2017.918653380041
 20
848.7593071246173
 30
0.0
 11
2017.918653380041
 21
1548.759307124617
 31
0.0
  0
LINE
  5
15FB
330
1F
100
AcDbEntity
  8
0
100
AcDbLine
 10
1571.109447667324
 20
1528.540768909051
 30
0.0
 11
1721.277595089903
 21
1544.581067915829
 31
0.0
  0
LINE
  5
15FC
330
1F
100
AcDbEntity
  8
0
100
AcDbLine
 10
1632.334846857692
 20
1428.800571049221
 30
0.0
 11
1724.211335542074
 21
1411.2836668949
 31
0.0
  0
LINE
  5
15FD
330
1F
100
AcDbEntity
  8
0
100
AcDbLine
 10
1571.057320051106
 20
1515.648791309966
 30
0.0
 11
1571.109447667324
 21
1528.540768909051
 31
0.0
  0
LINE
  5
15FF
330
1F
100
AcDbEntity
  8
0
100
AcDbLine
 10
1937.977608294279
 20
1515.648791309966
 30
0.0
 11
1937.925480678061
 21
1528.540768909051
 31
0.0
  0
LINE
  5
1600
330
1F
100
AcDbEntity
  8
0
100
AcDbLine
 10
1876.700081487694
 20
1428.800571049221
 30
0.0
 11
1784.823592803311
 21
1411.2836668949
 31
0.0
  0
LINE
  5
1601
330
1F
100
AcDbEntity
  8
0
100
AcDbLine
 10
1937.925480678061
 20
1528.540768909051
 30
0.0
 11
1787.757333255482
 21
1544.581067915829
 31
0.0
  0
LINE
  5
1602
330
1F
100
AcDbEntity
  8
0
100
AcDbLine
 10
1759.517464172694
 20
1509.675333151234
 30
0.0
 11
1787.757333255482
 21
1544.581067915829
 31
0.0
  0
SPLINE
  5
1603
330
1F
100
AcDbEntity
  8
0
100
AcDbSpline
210
0.0
220
0.0
230
1.0
 70
     8
 71
     3
 72
    11
 73
     7
 74
     5
 42
0.0000000001
 43
0.0000000001
 44
0.0000000001
 40
0.0
 40
0.0
 40
0.0
 40
0.0
 40
48.63902125983474
 40
69.85863874310784
 40
93.15087236406013
 40
118.5105560979597
 40
118.5105560979597
 40
118.5105560979597
 40
118.5105560979597
 10
1937.977608294279
 20
1515.648791309966
 30
0.0
 10
1938.136160740454
 20
1499.028340243194
 30
0.0
 10
1938.36388444402
 20
1475.156928838377
 30
0.0
 10
1921.235141168175
 20
1447.66371586028
 30
0.0
 10
1899.97670291134
 20
1436.69455688585
 30
0.0
 10
1884.675692729903
 20
1431.505403552125
 30
0.0
 10
1876.700081487694
 20
1428.800571049221
 30
0.0
 11
1937.977608294279
 21
1515.648791309966
 31
0.0
 11
1932.11574107834
 21
1467.364291707533
 31
0.0
 11
1920.398634793079
 21
1449.67300610031
 31
0.0
 11
1900.491433206703
 21
1437.580385538481
 31
0.0
 11
1876.700081487694
 21
1428.800571049221
 31
0.0
  0
LINE
  5
1604
330
1F
100
AcDbEntity
  8
0
100
AcDbLine
 10
1759.517464172694
 20
1492.275748287962
 30
0.0
 11
1759.517464172694
 21
1509.675333151234
 31
0.0
  0
LINE
  5
1605
330
1F
100
AcDbEntity
  8
0
100
AcDbLine
 10
1918.522888174891
 20
1472.275748287962
 30
0.0
 11
1933.898905643329
 21
1472.275748287962
 31
0.0
  0
LINE
  5
1606
330
1F
100
AcDbEntity
  8
0
100
AcDbLine
 10
1590.512040170495
 20
1472.275748287962
 30
0.0
 11
1575.136022702057
 21
1472.275748287962
 31
0.0
  0
LINE
  5
1707
330
1F
100
AcDbEntity
  8
0
100
AcDbLine
 10
1479.499702480661
 20
1352.34545828416
 30
0.0
 11
1496.673347116431
 21
1371.866368353218
 31
0.0
  0
ARC
  5
1708
330
1F
100
AcDbEntity
  8
0
100
AcDbCircle
 10
1479.499702480661
 20
1352.34545828416
 30
0.0
 40
25.99999999999995
100
AcDbArc
 50
0.0000000000015188
 51
48.66009117094135
  0
LINE
  5
170B
330
1F
100
AcDbEntity
  8
0
100
AcDbLine
 10
1479.499702480661
 20
1332.971335677543
 30
0.0
 11
1496.673347116431
 21
1313.450425608485
 31
0.0
  0
ARC
  5
170C
330
1F
100
AcDbEntity
  8
0
100
AcDbCircle
 10
1479.499702480661
 20
1332.971335677543
 30
0.0
 40
25.99999999999995
100
AcDbArc
 50
311.3399088290586
 51
359.9999999999984
  0
LINE
  5
1711
330
1F
100
AcDbEntity
  8
0
100
AcDbLine
 10
1433.559622533276
 20
1352.34545828416
 30
0.0
 11
1479.499702480661
 21
1352.34545828416
 31
0.0
  0
LINE
  5
1712
330
1F
100
AcDbEntity
  8
0
100
AcDbLine
 10
1505.499702480661
 20
1352.34545828416
 30
0.0
 11
1513.715167862518
 21
1352.34545828416
 31
0.0
  0
LINE
  5
1713
330
1F
100
AcDbEntity
  8
0
100
AcDbLine
 10
1473.567416370628
 20
1332.971335677543
 30
0.0
 11
1479.499702480661
 21
1332.971335677543
 31
0.0
  0
LINE
  5
1714
330
1F
100
AcDbEntity
  8
0
100
AcDbLine
 10
1505.499702480661
 20
1332.971335677543
 30
0.0
 11
1513.715167862518
 21
1332.971335677543
 31
0.0
  0
LINE
  5
1715
330
1F
100
AcDbEntity
  8
0
100
AcDbLine
 10
796.6266557865074
 20
879.4250697703645
 30
0.0
 11
812.4576237792025
 21
894.4233513941007
 31
0.0
  0
LINE
  5
1716
330
1F
100
AcDbEntity
  8
0
100
AcDbLine
 10
812.4576237792025
 20
894.4233513941007
 30
0.0
 11
885.5027975443363
 21
912.2375639588662
 31
0.0
  0
LINE
  5
1717
330
1F
100
AcDbEntity
  8
0
100
AcDbLine
 10
885.5027975443363
 20
912.2375639588662
 30
0.0
 11
931.8030918343611
 21
909.6516305062428
 31
0.0
  0
LINE
  5
1718
330
1F
100
AcDbEntity
  8
0
100
AcDbLine
 10
931.8030918343611
 20
909.6516305062428
 30
0.0
 11
946.6266557865074
 21
879.4250697703645
 31
0.0
  0
LINE
  5
171F
330
1F
100
AcDbEntity
  8
0
100
AcDbLine
 10
796.6266557865074
 20
876.4250697703646
 30
0.0
 11
806.6266557865079
 21
876.4250697703646
 31
0.0
  0
LINE
  5
1720
330
1F
100
AcDbEntity
  8
0
100
AcDbLine
 10
946.6266557865074
 20
876.4250697703646
 30
0.0
 11
936.6266557865074
 21
876.4250697703646
 31
0.0
  0
LINE
  5
1721
330
1F
100
AcDbEntity
  8
0
100
AcDbLine
 10
796.6266557865074
 20
876.4250697703646
 30
0.0
 11
812.4576237792025
 21
861.4267881466284
 31
0.0
  0
LINE
  5
1722
330
1F
100
AcDbEntity
  8
0
100
AcDbLine
 10
812.4576237792025
 20
861.4267881466284
 30
0.0
 11
885.5027975443363
 21
843.6125755818629
 31
0.0
  0
LINE
  5
1723
330
1F
100
AcDbEntity
  8
0
100
AcDbLine
 10
885.5027975443363
 20
843.6125755818629
 30
0.0
 11
931.8030918343611
 21
846.1985090344864
 31
0.0
  0
LINE
  5
1724
330
1F
100
AcDbEntity
  8
0
100
AcDbLine
 10
931.8030918343611
 20
846.1985090344864
 30
0.0
 11
946.6266557865074
 21
876.4250697703646
 31
0.0
  0
LINE
  5
1725
330
1F
100
AcDbEntity
  8
0
100
AcDbLine
 10
1448.535340542201
 20
846.1985090344864
 30
0.0
 11
1463.358904494347
 21
876.4250697703646
 31
0.0
  0
LINE
  5
1726
330
1F
100
AcDbEntity
  8
0
100
AcDbLine
 10
1402.235046252176
 20
843.6125755818629
 30
0.0
 11
1448.535340542201
 21
846.1985090344864
 31
0.0
  0
LINE
  5
1727
330
1F
100
AcDbEntity
  8
0
100
AcDbLine
 10
1329.189872487042
 20
861.4267881466284
 30
0.0
 11
1402.235046252176
 21
843.6125755818629
 31
0.0
  0
LINE
  5
1728
330
1F
100
AcDbEntity
  8
0
100
AcDbLine
 10
1313.358904494347
 20
876.4250697703646
 30
0.0
 11
1329.189872487042
 21
861.4267881466284
 31
0.0
  0
LINE
  5
1729
330
1F
100
AcDbEntity
  8
0
100
AcDbLine
 10
1463.358904494347
 20
876.4250697703646
 30
0.0
 11
1453.358904494347
 21
876.4250697703646
 31
0.0
  0
LINE
  5
172A
330
1F
100
AcDbEntity
  8
0
100
AcDbLine
 10
1313.358904494347
 20
876.4250697703646
 30
0.0
 11
1323.358904494348
 21
876.4250697703646
 31
0.0
  0
LINE
  5
172B
330
1F
100
AcDbEntity
  8
0
100
AcDbLine
 10
1448.535340542201
 20
909.6516305062428
 30
0.0
 11
1463.358904494347
 21
879.4250697703645
 31
0.0
  0
LINE
  5
172C
330
1F
100
AcDbEntity
  8
0
100
AcDbLine
 10
1402.235046252176
 20
912.2375639588662
 30
0.0
 11
1448.535340542201
 21
909.6516305062428
 31
0.0
  0
LINE
  5
172D
330
1F
100
AcDbEntity
  8
0
100
AcDbLine
 10
1329.189872487042
 20
894.4233513941007
 30
0.0
 11
1402.235046252176
 21
912.2375639588662
 31
0.0
  0
LINE
  5
172E
330
1F
100
AcDbEntity
  8
0
100
AcDbLine
 10
1313.358904494347
 20
879.4250697703645
 30
0.0
 11
1329.189872487042
 21
894.4233513941007
 31
0.0
  0
LINE
  5
172F
330
1F
100
AcDbEntity
  8
0
100
AcDbLine
 10
1463.358904494347
 20
876.4250697703646
 30
0.0
 11
1453.358904494347
 21
876.4250697703646
 31
0.0
  0
LINE
  5
1730
330
1F
100
AcDbEntity
  8
0
100
AcDbLine
 10
1463.358904494347
 20
879.4250697703645
 30
0.0
 11
1453.358904494347
 21
879.4250697703645
 31
0.0
  0
LINE
  5
1731
330
1F
100
AcDbEntity
  8
0
100
AcDbLine
 10
1313.358904494347
 20
876.4250697703646
 30
0.0
 11
1323.358904494348
 21
876.4250697703646
 31
0.0
  0
LINE
  5
1732
330
1F
100
AcDbEntity
  8
0
100
AcDbLine
 10
1313.358904494347
 20
879.4250697703645
 30
0.0
 11
1323.358904494348
 21
879.4250697703645
 31
0.0
  0
LINE
  5
1733
330
1F
100
AcDbEntity
  8
0
100
AcDbLine
 10
1323.358904494348
 20
879.4250697703645
 30
0.0
 11
1323.358904494348
 21
876.4250697703646
 31
0.0
  0
LINE
  5
1734
330
1F
100
AcDbEntity
  8
0
100
AcDbLine
 10
1453.358904494347
 20
879.4250697703645
 30
0.0
 11
1453.358904494347
 21
876.4250697703646
 31
0.0
  0
ENDSEC
  0
SECTION
  2
OBJECTS
  0
DICTIONARY
  5
C
330
0
100
AcDbDictionary
281
     1
  3
ACAD_COLOR
350
6B
  3
ACAD_GROUP
350
D
  3
ACAD_LAYOUT
350
1A
  3
ACAD_MATERIAL
350
6A
  3
ACAD_MLINESTYLE
350
17
  3
ACAD_PLOTSETTINGS
350
19
  3
ACAD_PLOTSTYLENAME
350
E
  3
AcDbVariableDictionary
350
5E
  0
DICTIONARY
  5
6B
102
{ACAD_REACTORS
330
C
102
}
330
C
100
AcDbDictionary
281
     1
  0
DICTIONARY
  5
D
102
{ACAD_REACTORS
330
C
102
}
330
C
100
AcDbDictionary
281
     1
  0
DICTIONARY
  5
1A
102
{ACAD_REACTORS
330
C
102
}
330
C
100
AcDbDictionary
281
     1
  3
Model
350
22
  3
Présentation1
350
51
  3
Présentation2
350
56
  0
DICTIONARY
  5
6A
102
{ACAD_REACTORS
330
C
102
}
330
C
100
AcDbDictionary
281
     1
  0
DICTIONARY
  5
17
102
{ACAD_REACTORS
330
C
102
}
330
C
100
AcDbDictionary
281
     1
  3
Standard
350
18
  0
DICTIONARY
  5
19
102
{ACAD_REACTORS
330
C
102
}
330
C
100
AcDbDictionary
281
     1
  0
ACDBDICTIONARYWDFLT
  5
E
102
{ACAD_REACTORS
330
C
102
}
330
C
100
AcDbDictionary
281
     1
  3
Normal
350
F
100
AcDbDictionaryWithDefault
340
F
  0
DICTIONARY
  5
5E
102
{ACAD_REACTORS
330
C
102
}
330
C
100
AcDbDictionary
281
     1
  3
DIMASSOC
350
5F
  3
HIDETEXT
350
63
  0
LAYOUT
  5
22
102
{ACAD_REACTORS
330
1A
102
}
330
1A
100
AcDbPlotSettings
  1

  2
none_device
  4
ANSI_A_(8.50_x_11.00_Inches)
  6

 40
6.349999904632567
 41
19.04999923706055
 42
6.350006103515625
 43
19.04998779296875
 44
215.8999938964844
 45
279.3999938964844
 46
0.0
 47
0.0
 48
0.0
 49
0.0
140
0.0
141
0.0
142
1.0
143
78.436453180766
 70
 11952
 72
     0
 73
     1
 74
     0
  7

 75
     0
147
0.0127491741332998
 76
     0
 77
     2
 78
   300
148
0.0
149
0.0
100
AcDbLayout
  1
Model
 70
     1
 71
     0
 10
0.0
 20
0.0
 11
12.0
 21
9.0
 12
0.0
 22
0.0
 32
0.0
 14
0.0
 24
0.0
 34
0.0
 15
0.0
 25
0.0
 35
0.0
146
0.0
 13
0.0
 23
0.0
 33
0.0
 16
1.0
 26
0.0
 36
0.0
 17
0.0
 27
1.0
 37
0.0
 76
     0
330
1F
  0
LAYOUT
  5
51
102
{ACAD_REACTORS
330
1A
102
}
330
1A
100
AcDbPlotSettings
  1

  2
None
  4

  6

 40
0.0
 41
0.0
 42
0.0
 43
0.0
 44
0.0
 45
0.0
 46
0.0
 47
0.0
 48
0.0
 49
0.0
140
0.0
141
0.0
142
1.0
143
1.0
 70
   688
 72
     0
 73
     0
 74
     5
  7

 75
    16
147
1.0
 76
     0
 77
     2
 78
   300
148
0.0
149
0.0
100
AcDbLayout
  1
Présentation1
 70
     1
 71
     1
 10
0.0
 20
0.0
 11
12.0
 21
9.0
 12
0.0
 22
0.0
 32
0.0
 14
0.0
 24
0.0
 34
0.0
 15
0.0
 25
0.0
 35
0.0
146
0.0
 13
0.0
 23
0.0
 33
0.0
 16
1.0
 26
0.0
 36
0.0
 17
0.0
 27
1.0
 37
0.0
 76
     0
330
50
  0
LAYOUT
  5
56
102
{ACAD_REACTORS
330
1A
102
}
330
1A
100
AcDbPlotSettings
  1

  2
None
  4

  6

 40
0.0
 41
0.0
 42
0.0
 43
0.0
 44
0.0
 45
0.0
 46
0.0
 47
0.0
 48
0.0
 49
0.0
140
0.0
141
0.0
142
1.0
143
1.0
 70
   688
 72
     0
 73
     0
 74
     5
  7

 75
    16
147
1.0
 76
     0
 77
     2
 78
   300
148
0.0
149
0.0
100
AcDbLayout
  1
Présentation2
 70
     1
 71
     2
 10
0.0
 20
0.0
 11
12.0
 21
9.0
 12
0.0
 22
0.0
 32
0.0
 14
0.0
 24
0.0
 34
0.0
 15
0.0
 25
0.0
 35
0.0
146
0.0
 13
0.0
 23
0.0
 33
0.0
 16
1.0
 26
0.0
 36
0.0
 17
0.0
 27
1.0
 37
0.0
 76
     0
330
55
  0
MLINESTYLE
  5
18
102
{ACAD_REACTORS
330
17
102
}
330
17
100
AcDbMlineStyle
  2
STANDARD
 70
     0
  3

 62
   256
 51
90.0
 52
90.0
 71
     2
 49
0.5
 62
   256
  6
BYLAYER
 49
-0.5
 62
   256
  6
BYLAYER
  0
ACDBPLACEHOLDER
  5
F
102
{ACAD_REACTORS
330
E
102
}
330
E
  0
DICTIONARYVAR
  5
5F
102
{ACAD_REACTORS
330
5E
102
}
330
5E
100
DictionaryVariables
280
     0
  1
2
  0
DICTIONARYVAR
  5
63
102
{ACAD_REACTORS
330
5E
102
}
330
5E
100
DictionaryVariables
280
     0
  1
1
  0
ENDSEC
  0
EOF
