  0
SECTION
  2
HEADER
  9
$ACADVER
  1
AC1015
  9
$ACADMAINTVER
 70
    20
  9
$DWGCODEPAGE
  3
ANSI_1252
  9
$INSBASE
 10
0.0
 20
0.0
 30
0.0
  9
$EXTMIN
 10
-602.8989456463205
 20
122.3261147954994
 30
0.0
  9
$EXTMAX
 10
822.2970673653794
 20
842.3261200540306
 30
0.0
  9
$LIMMIN
 10
0.0
 20
0.0
  9
$LIMMAX
 10
420.0
 20
297.0
  9
$ORTHOMODE
 70
     0
  9
$REGENMODE
 70
     1
  9
$FILLMODE
 70
     1
  9
$QTEXTMODE
 70
     0
  9
$MIRRTEXT
 70
     0
  9
$LTSCALE
 40
1.0
  9
$ATTMODE
 70
     1
  9
$TEXTSIZE
 40
2.5
  9
$TRACEWID
 40
1.0
  9
$TEXTSTYLE
  7
1
  9
$CLAYER
  8
0
  9
$CELTYPE
  6
ByLayer
  9
$CECOLOR
 62
   256
  9
$CELTSCALE
 40
1.0
  9
$DISPSILH
 70
     0
  9
$DIMSCALE
 40
1.0
  9
$DIMASZ
 40
2.5
  9
$DIMEXO
 40
0.625
  9
$DIMDLI
 40
3.75
  9
$DIMRND
 40
0.0
  9
$DIMDLE
 40
0.0
  9
$DIMEXE
 40
1.25
  9
$DIMTP
 40
0.0
  9
$DIMTM
 40
0.0
  9
$DIMTXT
 40
2.5
  9
$DIMCEN
 40
2.5
  9
$DIMTSZ
 40
0.0
  9
$DIMTOL
 70
     0
  9
$DIMLIM
 70
     0
  9
$DIMTIH
 70
     0
  9
$DIMTOH
 70
     0
  9
$DIMSE1
 70
     0
  9
$DIMSE2
 70
     0
  9
$DIMTAD
 70
     1
  9
$DIMZIN
 70
     8
  9
$DIMBLK
  1

  9
$DIMASO
 70
     1
  9
$DIMSHO
 70
     1
  9
$DIMPOST
  1

  9
$DIMAPOST
  1

  9
$DIMALT
 70
     0
  9
$DIMALTD
 70
     3
  9
$DIMALTF
 40
0.03937007874016
  9
$DIMLFAC
 40
1.0
  9
$DIMTOFL
 70
     1
  9
$DIMTVP
 40
0.0
  9
$DIMTIX
 70
     0
  9
$DIMSOXD
 70
     0
  9
$DIMSAH
 70
     0
  9
$DIMBLK1
  1

  9
$DIMBLK2
  1

  9
$DIMSTYLE
  2
ISO-25
  9
$DIMCLRD
 70
     0
  9
$DIMCLRE
 70
     0
  9
$DIMCLRT
 70
     0
  9
$DIMTFAC
 40
1.0
  9
$DIMGAP
 40
0.625
  9
$DIMJUST
 70
     0
  9
$DIMSD1
 70
     0
  9
$DIMSD2
 70
     0
  9
$DIMTOLJ
 70
     0
  9
$DIMTZIN
 70
     8
  9
$DIMALTZ
 70
     0
  9
$DIMALTTZ
 70
     0
  9
$DIMUPT
 70
     0
  9
$DIMDEC
 70
     2
  9
$DIMTDEC
 70
     2
  9
$DIMALTU
 70
     2
  9
$DIMALTTD
 70
     3
  9
$DIMTXSTY
  7
Standard
  9
$DIMAUNIT
 70
     0
  9
$DIMADEC
 70
     0
  9
$DIMALTRND
 40
0.0
  9
$DIMAZIN
 70
     0
  9
$DIMDSEP
 70
    44
  9
$DIMATFIT
 70
     3
  9
$DIMFRAC
 70
     0
  9
$DIMLDRBLK
  1

  9
$DIMLUNIT
 70
     2
  9
$DIMLWD
 70
    -2
  9
$DIMLWE
 70
    -2
  9
$DIMTMOVE
 70
     0
  9
$LUNITS
 70
     2
  9
$LUPREC
 70
     4
  9
$SKETCHINC
 40
1.0
  9
$FILLETRAD
 40
0.0
  9
$AUNITS
 70
     0
  9
$AUPREC
 70
     0
  9
$MENU
  1
.
  9
$ELEVATION
 40
0.0
  9
$PELEVATION
 40
0.0
  9
$THICKNESS
 40
0.0
  9
$LIMCHECK
 70
     0
  9
$CHAMFERA
 40
0.0
  9
$CHAMFERB
 40
0.0
  9
$CHAMFERC
 40
0.0
  9
$CHAMFERD
 40
0.0
  9
$SKPOLY
 70
     0
  9
$TDCREATE
 40
2454042.262609769
  9
$TDUCREATE
 40
2454042.220943102
  9
$TDUPDATE
 40
2454045.906012361
  9
$TDUUPDATE
 40
2454045.864345695
  9
$TDINDWG
 40
0.2546311111
  9
$TDUSRTIMER
 40
0.2546285764
  9
$USRTIMER
 70
     1
  9
$ANGBASE
 50
0.0
  9
$ANGDIR
 70
     0
  9
$PDMODE
 70
     0
  9
$PDSIZE
 40
0.0
  9
$PLINEWID
 40
0.0
  9
$SPLFRAME
 70
     0
  9
$SPLINETYPE
 70
     6
  9
$SPLINESEGS
 70
     8
  9
$HANDSEED
  5
761
  9
$SURFTAB1
 70
     6
  9
$SURFTAB2
 70
     6
  9
$SURFTYPE
 70
     6
  9
$SURFU
 70
     6
  9
$SURFV
 70
     6
  9
$UCSBASE
  2

  9
$UCSNAME
  2

  9
$UCSORG
 10
0.0
 20
0.0
 30
0.0
  9
$UCSXDIR
 10
1.0
 20
0.0
 30
0.0
  9
$UCSYDIR
 10
0.0
 20
1.0
 30
0.0
  9
$UCSORTHOREF
  2

  9
$UCSORTHOVIEW
 70
     0
  9
$UCSORGTOP
 10
0.0
 20
0.0
 30
0.0
  9
$UCSORGBOTTOM
 10
0.0
 20
0.0
 30
0.0
  9
$UCSORGLEFT
 10
0.0
 20
0.0
 30
0.0
  9
$UCSORGRIGHT
 10
0.0
 20
0.0
 30
0.0
  9
$UCSORGFRONT
 10
0.0
 20
0.0
 30
0.0
  9
$UCSORGBACK
 10
0.0
 20
0.0
 30
0.0
  9
$PUCSBASE
  2

  9
$PUCSNAME
  2

  9
$PUCSORG
 10
0.0
 20
0.0
 30
0.0
  9
$PUCSXDIR
 10
1.0
 20
0.0
 30
0.0
  9
$PUCSYDIR
 10
0.0
 20
1.0
 30
0.0
  9
$PUCSORTHOREF
  2

  9
$PUCSORTHOVIEW
 70
     0
  9
$PUCSORGTOP
 10
0.0
 20
0.0
 30
0.0
  9
$PUCSORGBOTTOM
 10
0.0
 20
0.0
 30
0.0
  9
$PUCSORGLEFT
 10
0.0
 20
0.0
 30
0.0
  9
$PUCSORGRIGHT
 10
0.0
 20
0.0
 30
0.0
  9
$PUCSORGFRONT
 10
0.0
 20
0.0
 30
0.0
  9
$PUCSORGBACK
 10
0.0
 20
0.0
 30
0.0
  9
$USERI1
 70
     0
  9
$USERI2
 70
     0
  9
$USERI3
 70
     0
  9
$USERI4
 70
     0
  9
$USERI5
 70
     0
  9
$USERR1
 40
0.0
  9
$USERR2
 40
0.0
  9
$USERR3
 40
0.0
  9
$USERR4
 40
0.0
  9
$USERR5
 40
0.0
  9
$WORLDVIEW
 70
     1
  9
$SHADEDGE
 70
     3
  9
$SHADEDIF
 70
    70
  9
$TILEMODE
 70
     1
  9
$MAXACTVP
 70
    64
  9
$PINSBASE
 10
0.0
 20
0.0
 30
0.0
  9
$PLIMCHECK
 70
     0
  9
$PEXTMIN
 10
0.0
 20
0.0
 30
0.0
  9
$PEXTMAX
 10
0.0
 20
0.0
 30
0.0
  9
$PLIMMIN
 10
0.0
 20
0.0
  9
$PLIMMAX
 10
12.0
 20
9.0
  9
$UNITMODE
 70
     0
  9
$VISRETAIN
 70
     1
  9
$PLINEGEN
 70
     0
  9
$PSLTSCALE
 70
     1
  9
$TREEDEPTH
 70
  3020
  9
$CMLSTYLE
  2
Standard
  9
$CMLJUST
 70
     0
  9
$CMLSCALE
 40
20.0
  9
$PROXYGRAPHICS
 70
     1
  9
$MEASUREMENT
 70
     1
  9
$CELWEIGHT
370
    -1
  9
$ENDCAPS
280
     0
  9
$JOINSTYLE
280
     0
  9
$LWDISPLAY
290
     0
  9
$INSUNITS
 70
     4
  9
$HYPERLINKBASE
  1

  9
$STYLESHEET
  1

  9
$XEDIT
290
     1
  9
$CEPSNTYPE
380
     0
  9
$PSTYLEMODE
290
     1
  9
$FINGERPRINTGUID
  2
{FDEAD578-A652-11D2-9A35-0060089B3A3F}
  9
$VERSIONGUID
  2
{5982139A-EEBD-41F9-8E25-D27C807FFC6E}
  9
$EXTNAMES
290
     1
  9
$PSVPSCALE
 40
0.0
  9
$OLESTARTUP
290
     0
  0
ENDSEC
  0
SECTION
  2
CLASSES
  0
CLASS
  1
ACDBDICTIONARYWDFLT
  2
AcDbDictionaryWithDefault
  3
ObjectDBX Classes
 90
        0
280
     0
281
     0
  0
CLASS
  1
DICTIONARYVAR
  2
AcDbDictionaryVar
  3
ObjectDBX Classes
 90
        0
280
     0
281
     0
  0
CLASS
  1
DIMASSOC
  2
AcDbDimAssoc
  3
"AcDbDimAssoc|Product Desc:     AcDim ARX App For Dimension|Company:          Autodesk, Inc.|WEB Address:      www.autodesk.com"
 90
    32768
280
     0
281
     0
  0
CLASS
  1
RASTERVARIABLES
  2
AcDbRasterVariables
  3
ISM
 90
        0
280
     0
281
     0
  0
CLASS
  1
ACDBPLACEHOLDER
  2
AcDbPlaceHolder
  3
ObjectDBX Classes
 90
        0
280
     0
281
     0
  0
CLASS
  1
LAYOUT
  2
AcDbLayout
  3
ObjectDBX Classes
 90
        0
280
     0
281
     0
  0
ENDSEC
  0
SECTION
  2
TABLES
  0
TABLE
  2
VPORT
  5
8
330
0
100
AcDbSymbolTable
 70
     2
  0
VPORT
  5
756
330
8
100
AcDbSymbolTableRecord
100
AcDbViewportTableRecord
  2
*Active
 70
     0
 10
0.0
 20
0.0
 11
1.0
 21
1.0
 12
289.6239191415771
 22
435.9923646051409
 13
0.0
 23
0.0
 14
10.0
 24
10.0
 15
10.0
 25
10.0
 16
0.0
 26
0.0
 36
1.0
 17
0.0
 27
0.0
 37
0.0
 40
856.661814481305
 41
1.59279038718291
 42
50.0
 43
0.0
 44
0.0
 50
0.0
 51
0.0
 71
     0
 72
  1000
 73
     1
 74
     3
 75
     0
 76
     0
 77
     0
 78
     0
281
     0
 65
     1
110
0.0
120
0.0
130
0.0
111
1.0
121
0.0
131
0.0
112
0.0
122
1.0
132
0.0
 79
     0
146
0.0
  0
ENDTAB
  0
TABLE
  2
LTYPE
  5
5
330
0
100
AcDbSymbolTable
 70
     1
  0
LTYPE
  5
14
330
5
100
AcDbSymbolTableRecord
100
AcDbLinetypeTableRecord
  2
ByBlock
 70
     0
  3

 72
    65
 73
     0
 40
0.0
  0
LTYPE
  5
15
330
5
100
AcDbSymbolTableRecord
100
AcDbLinetypeTableRecord
  2
ByLayer
 70
     0
  3

 72
    65
 73
     0
 40
0.0
  0
LTYPE
  5
16
330
5
100
AcDbSymbolTableRecord
100
AcDbLinetypeTableRecord
  2
Continuous
 70
     0
  3
Solid line
 72
    65
 73
     0
 40
0.0
  0
ENDTAB
  0
TABLE
  2
LAYER
  5
2
330
0
100
AcDbSymbolTable
 70
     2
  0
LAYER
  5
10
330
2
100
AcDbSymbolTableRecord
100
AcDbLayerTableRecord
  2
0
 70
     0
 62
     7
  6
Continuous
370
    -3
390
F
  0
LAYER
  5
169
330
2
100
AcDbSymbolTableRecord
100
AcDbLayerTableRecord
  2
Defpoints
 70
     0
 62
     7
  6
Continuous
290
     0
370
    -3
390
F
  0
ENDTAB
  0
TABLE
  2
STYLE
  5
3
330
0
100
AcDbSymbolTable
 70
     2
  0
STYLE
  5
11
330
3
100
AcDbSymbolTableRecord
100
AcDbTextStyleTableRecord
  2
Standard
 70
     0
 40
0.0
 41
1.0
 50
0.0
 71
     0
 42
2.5
  3
txt
  4

  0
STYLE
  5
6A7
330
3
100
AcDbSymbolTableRecord
100
AcDbTextStyleTableRecord
  2
1
 70
     0
 40
0.0
 41
1.0
 50
0.0
 71
     0
 42
2.5
  3
txt.shx
  4

  0
ENDTAB
  0
TABLE
  2
VIEW
  5
6
330
0
100
AcDbSymbolTable
 70
     0
  0
ENDTAB
  0
TABLE
  2
UCS
  5
7
330
0
100
AcDbSymbolTable
 70
     0
  0
ENDTAB
  0
TABLE
  2
APPID
  5
9
330
0
100
AcDbSymbolTable
 70
     1
  0
APPID
  5
12
330
9
100
AcDbSymbolTableRecord
100
AcDbRegAppTableRecord
  2
ACAD
 70
     0
  0
ENDTAB
  0
TABLE
  2
DIMSTYLE
  5
A
330
0
100
AcDbSymbolTable
 70
     1
100
AcDbDimStyleTable
 71
     1
340
27
  0
DIMSTYLE
105
27
330
A
100
AcDbSymbolTableRecord
100
AcDbDimStyleTableRecord
  2
ISO-25
 70
     0
 41
2.5
 42
0.625
 43
3.75
 44
1.25
 73
     0
 74
     0
 77
     1
 78
     8
140
2.5
141
2.5
143
0.03937007874016
147
0.625
171
     3
172
     1
271
     2
272
     2
274
     3
278
    44
283
     0
284
     8
340
11
  0
ENDTAB
  0
TABLE
  2
BLOCK_RECORD
  5
1
330
0
100
AcDbSymbolTable
 70
     1
  0
BLOCK_RECORD
  5
1F
330
1
100
AcDbSymbolTableRecord
100
AcDbBlockTableRecord
  2
*Model_Space
340
22
  0
BLOCK_RECORD
  5
50
330
1
100
AcDbSymbolTableRecord
100
AcDbBlockTableRecord
  2
*Paper_Space
340
51
  0
BLOCK_RECORD
  5
55
330
1
100
AcDbSymbolTableRecord
100
AcDbBlockTableRecord
  2
*Paper_Space0
340
56
  0
ENDTAB
  0
ENDSEC
  0
SECTION
  2
BLOCKS
  0
BLOCK
  5
20
330
1F
100
AcDbEntity
  8
0
100
AcDbBlockBegin
  2
*Model_Space
 70
     0
 10
0.0
 20
0.0
 30
0.0
  3
*Model_Space
  1

  0
ENDBLK
  5
21
330
1F
100
AcDbEntity
  8
0
100
AcDbBlockEnd
  0
BLOCK
  5
52
330
50
100
AcDbEntity
 67
     1
  8
0
100
AcDbBlockBegin
  2
*Paper_Space
 70
     0
 10
0.0
 20
0.0
 30
0.0
  3
*Paper_Space
  1

  0
ENDBLK
  5
53
330
50
100
AcDbEntity
 67
     1
  8
0
100
AcDbBlockEnd
  0
BLOCK
  5
57
330
55
100
AcDbEntity
  8
0
100
AcDbBlockBegin
  2
*Paper_Space0
 70
     0
 10
0.0
 20
0.0
 30
0.0
  3
*Paper_Space0
  1

  0
ENDBLK
  5
58
330
55
100
AcDbEntity
  8
0
100
AcDbBlockEnd
  0
ENDSEC
  0
SECTION
  2
ENTITIES
  0
LINE
  5
113
330
1F
100
AcDbEntity
  8
0
100
AcDbLine
 10
57.99552780050611
 20
214.9210995219231
 30
0.0
 11
57.96802575240721
 21
290.921094545853
 31
0.0
  0
SPLINE
  5
142
330
1F
100
AcDbEntity
  8
0
100
AcDbSpline
210
0.0
220
0.0
230
1.0
 70
     8
 71
     3
 72
    21
 73
    17
 74
    15
 42
0.0000000001
 43
0.0000000001
 44
0.0000000001
 40
0.0
 40
0.0
 40
0.0
 40
0.0
 40
27.81728954794313
 40
53.73921630746284
 40
82.97339638531765
 40
115.1147756670175
 40
144.166359869854
 40
194.9281536617686
 40
245.2961968907918
 40
270.8008568104976
 40
322.2206812844702
 40
398.3715934362649
 40
449.196873113468
 40
474.4792776564777
 40
500.3278524177026
 40
514.3109824322887
 40
514.3109824322887
 40
514.3109824322887
 40
514.3109824322887
 10
57.96802575240724
 20
290.921094545853
 30
0.0
 10
66.12534734455578
 20
295.4701923507418
 30
0.0
 10
81.88418210717632
 20
304.2584299868847
 30
0.0
 10
109.8108654570527
 20
308.3352033057476
 30
0.0
 10
134.3683541446327
 20
325.1547077414729
 30
0.0
 10
156.9802215947445
 20
344.6973461999238
 30
0.0
 10
188.44692555726
 20
365.9465048171601
 30
0.0
 10
233.1387730307987
 20
370.2896735439052
 30
0.0
 10
275.2768658782272
 20
367.6473908387623
 30
0.0
 10
316.3541174134981
 20
356.587061801234
 30
0.0
 10
365.9625431042349
 20
344.7761704086071
 30
0.0
 10
424.252081306094
 20
333.049371933433
 30
0.0
 10
474.4508407752673
 20
324.8281723339766
 30
0.0
 10
508.4576558004345
 20
323.7451033829032
 30
0.0
 10
530.1584325868406
 20
323.9383148893899
 30
0.0
 10
543.4359858160938
 20
323.922651368816
 30
0.0
 10
548.0971408965809
 20
323.9171526073167
 30
0.0
 11
57.96802575240724
 21
290.921094545853
 31
0.0
 11
83.06387159823499
 21
302.9210995073752
 31
0.0
 11
108.0227639282434
 21
309.9210981205859
 31
0.0
 11
133.1153617778319
 21
324.9210587199764
 31
0.0
 11
158.2763601527383
 21
344.9208692917803
 31
0.0
 11
183.0030612655927
 21
360.1716003159006
 31
0.0
 11
233.0051209493364
 21
368.9210995219232
 31
0.0
 11
283.2140731241199
 21
364.9209869946246
 31
0.0
 11
308.0029623274459
 21
358.9210995219232
 31
0.0
 11
358.0029458167846
 21
346.9210995219232
 31
0.0
 11
432.6618424857534
 21
331.9207472019749
 31
0.0
 11
483.0028196973757
 21
324.9210995219232
 31
0.0
 11
508.2654364087901
 21
323.9210113415304
 31
0.0
 11
534.1140108819947
 21
323.9171526073167
 31
0.0
 11
548.0971408965809
 21
323.9171526073167
 31
0.0
  0
LINE
  5
148
330
1F
100
AcDbEntity
  8
0
100
AcDbLine
 10
622.9955278005061
 20
166.9210995219231
 30
0.0
 11
633.0011913269807
 21
166.9210995219231
 31
0.0
  0
LINE
  5
150
330
1F
100
AcDbEntity
  8
0
100
AcDbLine
 10
633.0011913269807
 20
166.9210995219231
 30
0.0
 11
783.0011913269807
 21
166.9210995219231
 31
0.0
  0
LINE
  5
163
330
1F
100
AcDbEntity
  8
0
100
AcDbLine
 10
728.0011913269809
 20
411.9210995219232
 30
0.0
 11
783.0011913269807
 21
166.9210995219231
 31
0.0
  0
LINE
  5
181
330
1F
100
AcDbEntity
  8
0
100
AcDbLine
 10
633.0011913269807
 20
166.9210995219231
 30
0.0
 11
632.8760527008717
 21
308.9210443822092
 31
0.0
  0
LINE
  5
183
330
1F
100
AcDbEntity
  8
0
100
AcDbLine
 10
633.116815960299
 20
338.7893009513114
 30
0.0
 11
632.8760527008717
 21
308.9210443822092
 31
0.0
  0
LINE
  5
19D
330
1F
100
AcDbEntity
  8
0
100
AcDbLine
 10
633.116815960299
 20
338.7893009513114
 30
0.0
 11
590.4992183203146
 21
356.0451823933054
 31
0.0
  0
LINE
  5
1AA
330
1F
100
AcDbEntity
  8
0
100
AcDbLine
 10
329.2182526036179
 20
318.5209737101654
 30
0.0
 11
235.4538602328919
 21
291.0229175443003
 31
0.0
  0
SPLINE
  5
1AB
330
1F
100
AcDbEntity
  8
0
100
AcDbSpline
210
0.0
220
0.0
230
1.0
 70
     8
 71
     3
 72
     9
 73
     5
 74
     3
 42
0.0000000001
 43
0.0000000001
 44
0.0000000001
 40
0.0
 40
0.0
 40
0.0
 40
0.0
 40
86.60498155833264
 40
125.2186168886929
 40
125.2186168886929
 40
125.2186168886929
 40
125.2186168886929
 10
117.8092248574183
 20
314.5431421389822
 30
0.0
 10
144.0776287930114
 20
297.4395892322716
 30
0.0
 10
182.0580445785972
 20
272.7102584209908
 30
0.0
 10
222.8689965939222
 20
286.7068055960179
 30
0.0
 10
235.4538602328919
 20
291.0229175443003
 30
0.0
 11
117.8092248574183
 21
314.5431421389822
 31
0.0
 11
197.9684304161008
 21
281.7570994543272
 31
0.0
 11
235.4538602328919
 21
291.0229175443003
 31
0.0
  0
SPLINE
  5
1AD
330
1F
100
AcDbEntity
  8
0
100
AcDbSpline
210
0.0
220
0.0
230
1.0
 70
     8
 71
     3
 72
     9
 73
     5
 74
     3
 42
0.0000000001
 43
0.0000000001
 44
0.0000000001
 40
0.0
 40
0.0
 40
0.0
 40
0.0
 40
20.4071927562008
 40
41.57252101322238
 40
41.57252101322238
 40
41.57252101322238
 40
41.57252101322238
 10
329.2182526036179
 20
318.5209737101654
 30
0.0
 10
335.5949221982359
 20
321.4639554437458
 30
0.0
 10
348.5851572532795
 20
327.459251877824
 30
0.0
 10
354.8257475430089
 20
340.3554234799989
 30
0.0
 10
358.0029458167846
 20
346.9210995219232
 30
0.0
 11
329.2182526036179
 21
318.5209737101654
 31
0.0
 11
346.7218338205439
 21
329.0127876987571
 31
0.0
 11
358.0029458167846
 21
346.9210995219232
 31
0.0
  0
LINE
  5
1B2
330
1F
100
AcDbEntity
  8
0
100
AcDbLine
 10
622.9955278005061
 20
166.9210995219231
 30
0.0
 11
702.9955278005061
 21
166.9210995219231
 31
0.0
  0
LINE
  5
1DC
330
1F
100
AcDbEntity
  8
0
100
AcDbLine
 10
356.8284001606826
 20
807.3604638922743
 30
0.0
 11
356.8284001606826
 21
577.3604638922742
 31
0.0
  0
LINE
  5
1DE
330
1F
100
AcDbEntity
  8
0
100
AcDbLine
 10
356.8284001606826
 20
807.3604638922743
 30
0.0
 11
411.8284001606823
 21
807.3604638922743
 31
0.0
  0
LINE
  5
1E9
330
1F
100
AcDbEntity
  8
0
100
AcDbLine
 10
403.4928918654332
 20
667.0920606058992
 30
0.0
 11
656.8343467624231
 21
697.3604633029047
 31
0.0
  0
LINE
  5
1EA
330
1F
100
AcDbEntity
  8
0
100
AcDbLine
 10
656.8343467624231
 20
697.3604633029047
 30
0.0
 11
656.8343467624231
 21
697.3604633029047
 31
0.0
  0
LINE
  5
1F0
330
1F
100
AcDbEntity
  8
0
100
AcDbLine
 10
411.8284001606823
 20
807.3604638922743
 30
0.0
 11
555.9824140305541
 21
791.7201222973828
 31
0.0
  0
LINE
  5
202
330
1F
100
AcDbEntity
  8
0
100
AcDbLine
 10
656.8343467624231
 20
697.3604633029047
 30
0.0
 11
665.7565608862605
 21
618.7582854276378
 31
0.0
  0
ARC
  5
205
330
1F
100
AcDbEntity
  8
0
100
AcDbCircle
 10
543.4981849636042
 20
677.3016564426592
 30
0.0
 40
115.0975295301541
100
AcDbArc
 50
10.03656383361255
 51
83.77307500024903
  0
LINE
  5
206
330
1F
100
AcDbEntity
  8
0
100
AcDbLine
 10
356.8284001606826
 20
807.3604638922743
 30
0.0
 11
356.8284001606826
 21
577.3604638922742
 31
0.0
  0
LINE
  5
213
330
1F
100
AcDbEntity
  8
0
100
AcDbLine
 10
356.8284001606826
 20
807.3604638922743
 30
0.0
 11
356.8284001606826
 21
577.3604638922742
 31
0.0
  0
LINE
  5
214
330
1F
100
AcDbEntity
  8
0
100
AcDbLine
 10
356.8284001606826
 20
807.3604638922743
 30
0.0
 11
356.8284001606826
 21
577.3604638922742
 31
0.0
  0
LINE
  5
215
330
1F
100
AcDbEntity
  8
0
100
AcDbLine
 10
356.8284001606826
 20
807.3604638922743
 30
0.0
 11
356.8284001606826
 21
577.3604638922742
 31
0.0
  0
LINE
  5
21D
330
1F
100
AcDbEntity
  8
0
100
AcDbLine
 10
381.722571148985
 20
807.3604638922743
 30
0.0
 11
381.722571148985
 21
807.3604638922743
 31
0.0
  0
LINE
  5
221
330
1F
100
AcDbEntity
  8
0
100
AcDbLine
 10
356.8284001606826
 20
807.3604638922743
 30
0.0
 11
356.8284001606826
 21
577.3604638922742
 31
0.0
  0
LINE
  5
27B
330
1F
100
AcDbEntity
  8
0
100
AcDbLine
 10
337.3184446827884
 20
249.9711179103679
 30
0.0
 11
337.3184446827884
 21
249.9711179103679
 31
0.0
  0
LINE
  5
2A0
330
1F
100
AcDbEntity
  8
0
100
AcDbLine
 10
356.8284001606826
 20
577.3604638922742
 30
0.0
 11
398.1563863353776
 21
577.2903252688462
 31
0.0
  0
LINE
  5
2A2
330
1F
100
AcDbEntity
  8
0
100
AcDbLine
 10
665.7565608862605
 20
618.7582854276378
 30
0.0
 11
398.1563863353776
 21
577.2903252688462
 31
0.0
  0
LINE
  5
2A3
330
1F
100
AcDbEntity
  8
0
100
AcDbLine
 10
398.1563863353775
 20
577.2903252688462
 30
0.0
 11
403.4928918654332
 21
667.0920606058992
 31
0.0
  0
LINE
  5
393
330
1F
100
AcDbEntity
  8
0
100
AcDbLine
 10
622.9955278005061
 20
166.9210995219231
 30
0.0
 11
208.0030612655927
 21
166.9210995219231
 31
0.0
  0
LINE
  5
396
330
1F
100
AcDbEntity
  8
0
100
AcDbLine
 10
748.2071437884131
 20
634.9907065696552
 30
0.0
 11
748.2071437884131
 21
631.4907065696552
 31
0.0
  0
LINE
  5
397
330
1F
100
AcDbEntity
  8
0
100
AcDbLine
 10
748.2071437884131
 20
631.4907065696552
 30
0.0
 11
700.6019404008022
 21
631.5515974199653
 31
0.0
  0
LINE
  5
3C9
330
1F
100
AcDbEntity
  8
0
100
AcDbLine
 10
208.0030612655927
 20
166.9210995219231
 30
0.0
 11
202.2454903336433
 21
166.9228300705583
 31
0.0
  0
LINE
  5
3EE
330
1F
100
AcDbEntity
  8
0
100
AcDbLine
 10
528.073009169198
 20
249.9324553697908
 30
0.0
 11
528.0697993527357
 21
252.93231870649
 31
0.0
  0
LINE
  5
3F0
330
1F
100
AcDbEntity
  8
0
100
AcDbLine
 10
337.3184446827884
 20
249.9711179103679
 30
0.0
 11
337.3184446827884
 21
252.9365615317594
 31
0.0
  0
LINE
  5
425
330
1F
100
AcDbEntity
  8
0
100
AcDbLine
 10
528.0697993527357
 20
252.93231870649
 30
0.0
 11
578.1802290774561
 21
252.9312041152051
 31
0.0
  0
ELLIPSE
  5
42A
330
1F
100
AcDbEntity
  8
0
100
AcDbEllipse
 10
584.6745277531221
 20
251.4585045355843
 30
0.0
 11
0.0
 21
13.52124567897664
 31
0.0
210
0.0
220
0.0
230
1.0
 40
0.7656153477694816
 41
3.141592653589792
 42
6.283185307179584
  0
LINE
  5
42C
330
1F
100
AcDbEntity
  8
0
100
AcDbLine
 10
578.1802290774561
 20
249.9858049559636
 30
0.0
 11
584.6745277531221
 21
237.9372588566077
 31
0.0
  0
LINE
  5
42D
330
1F
100
AcDbEntity
  8
0
100
AcDbLine
 10
578.1802290774561
 20
252.9312041152051
 30
0.0
 11
584.6745277531221
 21
264.9797502145609
 31
0.0
  0
LINE
  5
450
330
1F
100
AcDbEntity
  8
0
100
AcDbLine
 10
528.0730162649692
 20
249.9258237308504
 30
0.0
 11
578.1801610273705
 21
249.8717696091894
 31
0.0
  0
LINE
  5
452
330
1F
100
AcDbEntity
  8
0
100
AcDbLine
 10
337.3184446827884
 20
252.9365615317594
 30
0.0
 11
107.3808099340217
 21
252.9416759657241
 31
0.0
  0
LINE
  5
453
330
1F
100
AcDbEntity
  8
0
100
AcDbLine
 10
337.3184446827884
 20
249.9711179103679
 30
0.0
 11
107.3808099340217
 21
249.9578615497048
 31
0.0
  0
SPLINE
  5
461
330
1F
100
AcDbEntity
  8
0
100
AcDbSpline
210
0.0
220
0.0
230
1.0
 70
     8
 71
     3
 72
    13
 73
     9
 74
     7
 42
0.0000000001
 43
0.0000000001
 44
0.0000000001
 40
0.0
 40
0.0
 40
0.0
 40
0.0
 40
62.97358391021056
 40
100.2830001057199
 40
132.6077460101698
 40
147.0869732054885
 40
156.1317900771263
 40
162.412732304875
 40
162.412732304875
 40
162.412732304875
 40
162.412732304875
 10
202.2454903336433
 20
166.9228300705583
 30
0.0
 10
181.2042717731081
 20
167.9162888349376
 30
0.0
 10
147.6969439046604
 20
169.4983335461824
 30
0.0
 10
104.1080916167606
 20
171.1410170892714
 30
0.0
 10
75.70449623026561
 20
184.7690106124826
 30
0.0
 10
69.64985703900265
 20
202.6577692638981
 30
0.0
 10
64.56340086445113
 20
211.6588320456954
 30
0.0
 10
59.9047702456737
 20
213.9727773676331
 30
0.0
 10
57.99552780050611
 20
214.9210995219231
 30
0.0
 11
202.2454903336433
 21
166.9228300705583
 31
0.0
 11
139.3362672779194
 21
169.769218136425
 31
0.0
 11
102.2901529849132
 21
174.1939161644559
 31
0.0
 11
74.79680885905145
 21
191.1940698862371
 31
0.0
 11
68.50595926212554
 21
204.2352826949645
 31
0.0
 11
63.38008469878423
 21
211.6874046882194
 31
0.0
 11
57.99552780050611
 21
214.9210995219231
 31
0.0
  0
LINE
  5
46A
330
1F
100
AcDbEntity
  8
0
100
AcDbLine
 10
92.41977914847231
 20
249.9521060658973
 30
0.0
 11
87.41978999479178
 21
249.9416915050779
 31
0.0
  0
LINE
  5
46B
330
1F
100
AcDbEntity
  8
0
100
AcDbLine
 10
87.41978999479178
 20
249.9416915050779
 30
0.0
 11
87.41961857193812
 21
252.9405349243601
 31
0.0
  0
LINE
  5
46E
330
1F
100
AcDbEntity
  8
0
100
AcDbLine
 10
67.37605576026263
 20
249.9380567288903
 30
0.0
 11
67.37588419512936
 21
252.9393891645907
 31
0.0
  0
LINE
  5
46F
330
1F
100
AcDbEntity
  8
0
100
AcDbLine
 10
67.37605576026263
 20
249.9380567288903
 30
0.0
 11
72.37605575933931
 21
249.9381528173288
 31
0.0
  0
LINE
  5
475
330
1F
100
AcDbEntity
  8
0
100
AcDbLine
 10
77.37605575841603
 20
249.9382489057672
 30
0.0
 11
77.37588417159209
 21
252.9399607944802
 31
0.0
  0
LINE
  5
476
330
1F
100
AcDbEntity
  8
0
100
AcDbLine
 10
72.37605575933931
 20
249.9381528173288
 30
0.0
 11
77.37605575841603
 21
249.9382489057672
 31
0.0
  0
LINE
  5
47A
330
1F
100
AcDbEntity
  8
0
100
AcDbLine
 10
97.41976830215286
 20
249.9625206267166
 30
0.0
 11
97.41959803727803
 21
252.9411065530771
 31
0.0
  0
LINE
  5
482
330
1F
100
AcDbEntity
  8
0
100
AcDbLine
 10
92.41977914847231
 20
249.9521060658973
 30
0.0
 11
97.41976830215286
 21
249.9625206267166
 31
0.0
  0
LINE
  5
485
330
1F
100
AcDbEntity
  8
0
100
AcDbLine
 10
67.37605576026263
 20
249.9380567288904
 30
0.0
 11
72.37605575933931
 21
249.9381528173288
 31
0.0
  0
LINE
  5
486
330
1F
100
AcDbEntity
  8
0
100
AcDbLine
 10
67.37605576026263
 20
249.9380567288904
 30
0.0
 11
67.37588419512936
 21
252.9393891645907
 31
0.0
  0
LINE
  5
487
330
1F
100
AcDbEntity
  8
0
100
AcDbLine
 10
87.41978999479178
 20
249.941691505078
 30
0.0
 11
87.41961857193812
 21
252.9405349243601
 31
0.0
  0
LINE
  5
497
330
1F
100
AcDbEntity
  8
0
100
AcDbLine
 10
97.41976830215286
 20
249.9625206267166
 30
0.0
 11
97.41959803727803
 21
252.9411065530771
 31
0.0
  0
LINE
  5
498
330
1F
100
AcDbEntity
  8
0
100
AcDbLine
 10
72.37605575933931
 20
249.9381528173288
 30
0.0
 11
77.37605575841603
 21
249.9382489057672
 31
0.0
  0
LINE
  5
499
330
1F
100
AcDbEntity
  8
0
100
AcDbLine
 10
77.37605575841603
 20
249.9382489057672
 30
0.0
 11
77.37588417159209
 21
252.9399607944802
 31
0.0
  0
LINE
  5
49C
330
1F
100
AcDbEntity
  8
0
100
AcDbLine
 10
107.3808099340217
 20
249.9578615497048
 30
0.0
 11
107.3808099333058
 21
252.9416759657241
 31
0.0
  0
LINE
  5
4A0
330
1F
100
AcDbEntity
  8
0
100
AcDbLine
 10
67.37588419512936
 20
252.9393891645907
 30
0.0
 11
77.37588417159209
 21
252.9399607944802
 31
0.0
  0
LINE
  5
4A1
330
1F
100
AcDbEntity
  8
0
100
AcDbLine
 10
87.41961857193812
 20
252.9405349243601
 30
0.0
 11
97.41959803727803
 21
252.9411065530771
 31
0.0
  0
LINE
  5
4DC
330
1F
100
AcDbEntity
  8
0
100
AcDbLine
 10
359.9075602581387
 20
522.169482139563
 30
0.0
 11
362.9064023850481
 21
522.1666927612719
 31
0.0
  0
LINE
  5
4DD
330
1F
100
AcDbEntity
  8
0
100
AcDbLine
 10
359.9237149496241
 20
542.2132101935443
 30
0.0
 11
362.925046091879
 21
542.2104185000915
 31
0.0
  0
LINE
  5
4DE
330
1F
100
AcDbEntity
  8
0
100
AcDbLine
 10
359.9237149496241
 20
542.2132101935443
 30
0.0
 11
359.9188744664002
 21
537.2132125365729
 31
0.0
  0
LINE
  5
4E0
330
1F
100
AcDbEntity
  8
0
100
AcDbLine
 10
416.384924536883
 20
502.1526915335588
 30
0.0
 11
416.384924536883
 21
502.1526915335588
 31
0.0
  0
LINE
  5
4E4
330
1F
100
AcDbEntity
  8
0
100
AcDbLine
 10
359.9130382529744
 20
517.1694851404063
 30
0.0
 11
362.9017516377881
 21
517.1667051833829
 31
0.0
  0
LINE
  5
4E5
330
1F
100
AcDbEntity
  8
0
100
AcDbLine
 10
359.9188744664002
 20
537.2132125365729
 30
0.0
 11
362.9203953350796
 21
537.2104206666455
 31
0.0
  0
LINE
  5
4E6
330
1F
100
AcDbEntity
  8
0
100
AcDbLine
 10
359.9237149496241
 20
542.2132101935443
 30
0.0
 11
359.9188744664002
 21
537.2132125365729
 31
0.0
  0
LINE
  5
4E7
330
1F
100
AcDbEntity
  8
0
100
AcDbLine
 10
359.9237149496241
 20
542.2132101935443
 30
0.0
 11
362.9250460918788
 21
542.2104185000915
 31
0.0
  0
LINE
  5
4E8
330
1F
100
AcDbEntity
  8
0
100
AcDbLine
 10
359.9075602581387
 20
522.169482139563
 30
0.0
 11
362.9064023850481
 21
522.1666927612719
 31
0.0
  0
LINE
  5
4E9
330
1F
100
AcDbEntity
  8
0
100
AcDbLine
 10
359.9130382529744
 20
517.1694851404063
 30
0.0
 11
359.9075602581387
 21
522.169482139563
 31
0.0
  0
LINE
  5
4ED
330
1F
100
AcDbEntity
  8
0
100
AcDbLine
 10
416.384924536883
 20
502.1526915335588
 30
0.0
 11
416.384924536883
 21
502.1526915335588
 31
0.0
  0
LINE
  5
4EE
330
1F
100
AcDbEntity
  8
0
100
AcDbLine
 10
362.8878354557148
 20
502.2055100016046
 30
0.0
 11
416.384924536883
 21
502.1526915335588
 31
0.0
  0
LINE
  5
4EF
330
1F
100
AcDbEntity
  8
0
100
AcDbLine
 10
386.2791101986131
 20
502.1824154497557
 30
0.0
 11
386.2791101986131
 21
502.1824154497557
 31
0.0
  0
ARC
  5
4F0
330
1F
100
AcDbEntity
  8
0
100
AcDbCircle
 10
343.5232094947334
 20
496.9411729230579
 30
0.0
 40
73.0478572246373
100
AcDbArc
 50
4.091179711223404
 51
48.42378536318101
  0
LINE
  5
4F2
330
1F
100
AcDbEntity
  8
0
100
AcDbLine
 10
362.9337840396656
 20
551.6045282953389
 30
0.0
 11
391.9989158511867
 21
551.586349639342
 31
0.0
  0
LINE
  5
4FD
330
1F
100
AcDbEntity
  8
0
100
AcDbLine
 10
344.6820886850394
 20
536.9237418586672
 30
0.0
 11
347.683609553719
 21
536.9209499887396
 31
0.0
  0
LINE
  5
4FE
330
1F
100
AcDbEntity
  8
0
100
AcDbLine
 10
344.6611536494704
 20
516.8801999886802
 30
0.0
 11
347.6498670342839
 21
516.8774200316565
 31
0.0
  0
LINE
  5
4FF
330
1F
100
AcDbEntity
  8
0
100
AcDbLine
 10
344.6772482018157
 20
531.9237442016953
 30
0.0
 11
347.6789587969197
 21
531.9209521552936
 31
0.0
  0
LINE
  5
501
330
1F
100
AcDbEntity
  8
0
100
AcDbLine
 10
344.6666316443063
 20
511.8802029895237
 30
0.0
 11
347.6452162870241
 21
511.8774324537675
 31
0.0
  0
LINE
  5
507
330
1F
100
AcDbEntity
  8
0
100
AcDbLine
 10
344.6666316443063
 20
511.8802029895237
 30
0.0
 11
347.6452162870241
 21
511.8774324537675
 31
0.0
  0
LINE
  5
509
330
1F
100
AcDbEntity
  8
0
100
AcDbLine
 10
344.6772482018157
 20
531.9237442016953
 30
0.0
 11
347.6789587969197
 21
531.9209521552936
 31
0.0
  0
LINE
  5
513
330
1F
100
AcDbEntity
  8
0
100
AcDbLine
 10
291.1484379332867
 20
501.9718251887621
 30
0.0
 11
291.1484379332867
 21
501.9718251887621
 31
0.0
  0
LINE
  5
51A
330
1F
100
AcDbEntity
  8
0
100
AcDbLine
 10
291.1484379332867
 20
501.9718251887621
 30
0.0
 11
291.1484379332867
 21
501.9718251887621
 31
0.0
  0
LINE
  5
51B
330
1F
100
AcDbEntity
  8
0
100
AcDbLine
 10
344.645527014455
 20
501.9190067207163
 30
0.0
 11
291.1484379332867
 21
501.9718251887621
 31
0.0
  0
LINE
  5
51C
330
1F
100
AcDbEntity
  8
0
100
AcDbLine
 10
321.2542522715566
 20
501.9421012725651
 30
0.0
 11
321.2542522715566
 21
501.9421012725651
 31
0.0
  0
ARC
  5
51D
330
1F
100
AcDbEntity
  8
0
100
AcDbCircle
 10
363.9997201168319
 20
496.6164419788968
 30
0.0
 40
73.0478572246373
100
AcDbArc
 50
131.463076730887
 51
175.7956823828445
  0
LINE
  5
51E
330
1F
100
AcDbEntity
  8
0
100
AcDbLine
 10
344.6971231891744
 20
551.3180194385005
 30
0.0
 11
315.6320121463507
 21
551.3572336318611
 31
0.0
  0
LINE
  5
526
330
1F
100
AcDbEntity
  8
0
100
AcDbLine
 10
342.3446459777672
 20
252.9322078546492
 30
0.0
 11
347.3446459777672
 21
252.9322078546492
 31
0.0
  0
LINE
  5
52A
330
1F
100
AcDbEntity
  8
0
100
AcDbLine
 10
352.3446459777672
 20
252.9322078546492
 30
0.0
 11
362.3446459777672
 21
252.9322078546492
 31
0.0
  0
LINE
  5
52F
330
1F
100
AcDbEntity
  8
0
100
AcDbLine
 10
523.0697995088688
 20
252.9310691734746
 30
0.0
 11
518.0697996650023
 21
252.9298196404591
 31
0.0
  0
LINE
  5
533
330
1F
100
AcDbEntity
  8
0
100
AcDbLine
 10
513.0698000466829
 20
252.9317733052162
 30
0.0
 11
503.0698205831491
 21
252.9520397529629
 31
0.0
  0
LINE
  5
588
330
1F
100
AcDbEntity
  8
0
100
AcDbLine
 10
434.8445939759666
 20
252.9277060291335
 30
0.0
 11
444.8445778037973
 21
252.9097215045416
 31
0.0
  0
LINE
  5
58B
330
1F
100
AcDbEntity
  8
0
100
AcDbLine
 10
429.844608174814
 20
252.9250762272024
 30
0.0
 11
419.844616942169
 21
252.9118343607919
 31
0.0
  0
LINE
  5
590
330
1F
100
AcDbEntity
  8
0
100
AcDbLine
 10
137.5615285738893
 20
539.2809037997947
 30
0.0
 11
127.5615373412442
 21
539.267661933384
 31
0.0
  0
LINE
  5
596
330
1F
100
AcDbEntity
  8
0
100
AcDbLine
 10
220.7867204457582
 20
539.2876008778086
 30
0.0
 11
210.7867409822245
 21
539.307867325555
 31
0.0
  0
LINE
  5
59D
330
1F
100
AcDbEntity
  8
0
100
AcDbLine
 10
60.06156637684261
 20
539.2880354272413
 30
0.0
 11
70.06156637684262
 21
539.2880354272413
 31
0.0
  0
LINE
  5
5A7
330
1F
100
AcDbEntity
  8
0
100
AcDbLine
 10
70.06156986409383
 20
536.2880701822356
 30
0.0
 11
127.561540828457
 21
536.2881370216379
 31
0.0
  0
LINE
  5
5A8
330
1F
100
AcDbEntity
  8
0
100
AcDbLine
 10
45.06741504794331
 20
536.2880411284058
 30
0.0
 11
45.13505428582084
 21
496.4600550323093
 31
0.0
  0
LINE
  5
5A9
330
1F
100
AcDbEntity
  8
0
100
AcDbLine
 10
235.760312773973
 20
507.7882627945733
 30
0.0
 11
45.13505428582084
 21
496.4600550323093
 31
0.0
  0
LINE
  5
5AA
330
1F
100
AcDbEntity
  8
0
100
AcDbLine
 10
235.760312773973
 20
507.7882627945733
 30
0.0
 11
235.7602796448614
 21
536.2882627945541
 31
0.0
  0
LINE
  5
5AF
330
1F
100
AcDbEntity
  8
0
100
AcDbLine
 10
60.06156637683239
 20
539.288052863616
 30
0.0
 11
60.06156986410065
 21
536.2880585579858
 31
0.0
  0
LINE
  5
5B0
330
1F
100
AcDbEntity
  8
0
100
AcDbLine
 10
60.06156637683239
 20
539.288052863616
 30
0.0
 11
70.06156637682557
 21
539.2880644878657
 31
0.0
  0
LINE
  5
5B1
330
1F
100
AcDbEntity
  8
0
100
AcDbLine
 10
70.06156637682557
 20
539.2880644878657
 30
0.0
 11
70.06156986409383
 21
536.2880701822355
 31
0.0
  0
LINE
  5
5B6
330
1F
100
AcDbEntity
  8
0
100
AcDbLine
 10
220.7867204451345
 20
539.2886742439817
 30
0.0
 11
220.7867239329078
 21
536.288245388919
 31
0.0
  0
LINE
  5
5B7
330
1F
100
AcDbEntity
  8
0
100
AcDbLine
 10
220.7867204451345
 20
539.2886742439817
 30
0.0
 11
210.7867410051656
 21
539.2683961720096
 31
0.0
  0
LINE
  5
5B8
330
1F
100
AcDbEntity
  8
0
100
AcDbLine
 10
210.7867410051656
 20
539.2683961720096
 30
0.0
 11
210.7867444693809
 21
536.2882337646931
 31
0.0
  0
LINE
  5
5BA
330
1F
100
AcDbEntity
  8
0
100
AcDbLine
 10
137.5615285655367
 20
539.2952745789544
 30
0.0
 11
137.561532061095
 21
536.2881486458774
 31
0.0
  0
LINE
  5
5BD
330
1F
100
AcDbEntity
  8
0
100
AcDbLine
 10
137.5615285655367
 20
539.2952745789544
 30
0.0
 11
127.561537317506
 21
539.3085048211253
 31
0.0
  0
LINE
  5
5BE
330
1F
100
AcDbEntity
  8
0
100
AcDbLine
 10
127.561537317506
 20
539.3085048211253
 30
0.0
 11
127.561540828457
 21
536.2881370216378
 31
0.0
  0
LINE
  5
5C1
330
1F
100
AcDbEntity
  8
0
100
AcDbLine
 10
152.7898338515504
 20
544.6817876499367
 30
0.0
 11
152.7898338515504
 21
547.7042683056764
 31
0.0
  0
LINE
  5
5C2
330
1F
100
AcDbEntity
  8
0
100
AcDbLine
 10
142.7898500237197
 20
544.6997721745282
 30
0.0
 11
152.7898338515504
 21
544.6817876499367
 31
0.0
  0
LINE
  5
5C4
330
1F
100
AcDbEntity
  8
0
100
AcDbLine
 10
142.7898500237197
 20
544.6997721745282
 30
0.0
 11
142.7898500237197
 21
547.7042683056764
 31
0.0
  0
LINE
  5
5C9
330
1F
100
AcDbEntity
  8
0
100
AcDbLine
 10
226.0150557127554
 20
544.7018857858543
 30
0.0
 11
226.0150557127554
 21
547.7042683056764
 31
0.0
  0
LINE
  5
5CA
330
1F
100
AcDbEntity
  8
0
100
AcDbLine
 10
231.015055556622
 20
544.7031353188697
 30
0.0
 11
226.0150557127554
 21
544.7018857858543
 31
0.0
  0
LINE
  5
5D0
330
1F
100
AcDbEntity
  8
0
100
AcDbLine
 10
55.28990202552041
 20
544.704274000044
 30
0.0
 11
55.28990202552041
 21
547.7042683056764
 31
0.0
  0
LINE
  5
5D1
330
1F
100
AcDbEntity
  8
0
100
AcDbLine
 10
50.28990202552041
 20
544.704274000044
 30
0.0
 11
55.28990202552041
 21
544.704274000044
 31
0.0
  0
LINE
  5
5D3
330
1F
100
AcDbEntity
  8
0
100
AcDbLine
 10
235.9886118063996
 20
576.2042683056765
 30
0.0
 11
235.9886118063996
 21
547.7042683056764
 31
0.0
  0
LINE
  5
5D4
330
1F
100
AcDbEntity
  8
0
100
AcDbLine
 10
235.9886118063996
 20
576.2042683056765
 30
0.0
 11
45.36334015018474
 21
587.5322544803716
 31
0.0
  0
LINE
  5
5D5
330
1F
100
AcDbEntity
  8
0
100
AcDbLine
 10
45.29574720935285
 20
547.7042683056764
 30
0.0
 11
45.36334015018474
 21
587.5322544803716
 31
0.0
  0
LINE
  5
5D6
330
1F
100
AcDbEntity
  8
0
100
AcDbLine
 10
55.28990202552041
 20
547.7042683056764
 30
0.0
 11
142.7898500237197
 21
547.7042683056764
 31
0.0
  0
LINE
  5
5D7
330
1F
100
AcDbEntity
  8
0
100
AcDbLine
 10
347.3446459777672
 20
252.9322078546492
 30
0.0
 11
347.3446459777672
 21
249.9711179103679
 31
0.0
  0
LINE
  5
5D8
330
1F
100
AcDbEntity
  8
0
100
AcDbLine
 10
352.3446459777672
 20
252.9322078546492
 30
0.0
 11
352.3446459777672
 21
249.9711179103679
 31
0.0
  0
LINE
  5
5D9
330
1F
100
AcDbEntity
  8
0
100
AcDbLine
 10
362.3446459777672
 20
252.9322078546492
 30
0.0
 11
362.3467143826213
 21
249.9711179103679
 31
0.0
  0
LINE
  5
5DA
330
1F
100
AcDbEntity
  8
0
100
AcDbLine
 10
419.844616942169
 20
252.9118343607919
 30
0.0
 11
419.844616942169
 21
249.9711179103679
 31
0.0
  0
LINE
  5
5DB
330
1F
100
AcDbEntity
  8
0
100
AcDbLine
 10
429.844608174814
 20
252.9250762272024
 30
0.0
 11
429.844608174814
 21
249.9711179103679
 31
0.0
  0
LINE
  5
5DC
330
1F
100
AcDbEntity
  8
0
100
AcDbLine
 10
434.8445939759666
 20
252.9277060291335
 30
0.0
 11
434.8445939759667
 21
249.9711179103679
 31
0.0
  0
LINE
  5
5DD
330
1F
100
AcDbEntity
  8
0
100
AcDbLine
 10
444.8445778037973
 20
252.9097215045416
 30
0.0
 11
444.8445778037973
 21
249.9711179103679
 31
0.0
  0
LINE
  5
5DE
330
1F
100
AcDbEntity
  8
0
100
AcDbLine
 10
518.0697996650023
 20
252.9298196404591
 30
0.0
 11
518.0765310848172
 21
249.9711179103679
 31
0.0
  0
LINE
  5
5DF
330
1F
100
AcDbEntity
  8
0
100
AcDbLine
 10
513.0698000466829
 20
252.9317733052162
 30
0.0
 11
513.0646156458992
 21
249.9711179103679
 31
0.0
  0
LINE
  5
5E0
330
1F
100
AcDbEntity
  8
0
100
AcDbLine
 10
503.0698205831491
 20
252.9520397529629
 30
0.0
 11
503.0698205831491
 21
249.9711179103679
 31
0.0
  0
LINE
  5
5E2
330
1F
100
AcDbEntity
  8
0
100
AcDbLine
 10
342.3446459777672
 20
249.9711179103679
 30
0.0
 11
347.3446459777672
 21
249.9711179103679
 31
0.0
  0
LINE
  5
5E4
330
1F
100
AcDbEntity
  8
0
100
AcDbLine
 10
352.3446459777672
 20
249.9711179103679
 30
0.0
 11
362.3467143826213
 21
249.9711179103679
 31
0.0
  0
LINE
  5
5E6
330
1F
100
AcDbEntity
  8
0
100
AcDbLine
 10
419.844616942169
 20
249.9711179103679
 30
0.0
 11
429.844608174814
 21
249.9711179103679
 31
0.0
  0
LINE
  5
5E8
330
1F
100
AcDbEntity
  8
0
100
AcDbLine
 10
434.8445939759667
 20
249.9711179103679
 30
0.0
 11
444.8445778037973
 21
249.9711179103679
 31
0.0
  0
LINE
  5
5EA
330
1F
100
AcDbEntity
  8
0
100
AcDbLine
 10
503.0698205831491
 20
249.9711179103679
 30
0.0
 11
513.0646156458992
 21
249.9711179103679
 31
0.0
  0
LINE
  5
5EC
330
1F
100
AcDbEntity
  8
0
100
AcDbLine
 10
518.0765310848172
 20
249.9711179103679
 30
0.0
 11
523.0562857039132
 21
249.9485545898002
 31
0.0
  0
LINE
  5
5ED
330
1F
100
AcDbEntity
  8
0
100
AcDbLine
 10
50.28990202552041
 20
544.704274000044
 30
0.0
 11
50.28990202552019
 21
547.7042683056764
 31
0.0
  0
LINE
  5
5EE
330
1F
100
AcDbEntity
  8
0
100
AcDbLine
 10
342.3446459777672
 20
252.9322078546492
 30
0.0
 11
342.3446459777672
 21
249.9711179103679
 31
0.0
  0
LINE
  5
5EF
330
1F
100
AcDbEntity
  8
0
100
AcDbLine
 10
523.0697995088688
 20
252.9310691734746
 30
0.0
 11
523.0562857039132
 21
249.9485545898002
 31
0.0
  0
LINE
  5
5F3
330
1F
100
AcDbEntity
  8
0
100
AcDbLine
 10
231.015055556622
 20
544.7031353188697
 30
0.0
 11
231.015055556622
 21
547.7042683056764
 31
0.0
  0
LINE
  5
5FC
330
1F
100
AcDbEntity
  8
0
100
AcDbLine
 10
356.8284001606826
 20
737.2724427619957
 30
0.0
 11
356.8284001606826
 21
737.2724427619957
 31
0.0
  0
CIRCLE
  5
5FE
330
1F
100
AcDbEntity
  8
0
100
AcDbCircle
 10
566.8283255868008
 20
737.4494202318946
 30
0.0
 40
1.5
  0
CIRCLE
  5
604
330
1F
100
AcDbEntity
  8
0
100
AcDbCircle
 10
177.6346156307142
 20
181.9199973635062
 30
0.0
 40
1.5
  0
LINE
  5
607
330
1F
100
AcDbEntity
  8
0
100
AcDbLine
 10
54.80778355647601
 20
447.5038870505222
 30
0.0
 11
574.3261510594519
 21
447.5038870505222
 31
0.0
  0
LINE
  5
60A
330
1F
100
AcDbEntity
  8
0
100
AcDbLine
 10
54.80778355647601
 20
447.5038870505222
 30
0.0
 11
54.80778355647601
 21
422.5038870505221
 31
0.0
  0
LINE
  5
60B
330
1F
100
AcDbEntity
  8
0
100
AcDbLine
 10
54.80778355647601
 20
422.5038870505221
 30
0.0
 11
574.3261510594519
 21
422.5038870505221
 31
0.0
  0
LINE
  5
60C
330
1F
100
AcDbEntity
  8
0
100
AcDbLine
 10
574.3261510594519
 20
447.5038870505222
 30
0.0
 11
574.3261510594519
 21
422.5038870505221
 31
0.0
  0
LINE
  5
60D
330
1F
100
AcDbEntity
  8
0
100
AcDbLine
 10
574.3261510594519
 20
407.8872893660099
 30
0.0
 11
574.3261510594519
 21
382.88728936601
 31
0.0
  0
LINE
  5
60E
330
1F
100
AcDbEntity
  8
0
100
AcDbLine
 10
54.80778355647601
 20
382.88728936601
 30
0.0
 11
574.3261510594519
 21
382.88728936601
 31
0.0
  0
LINE
  5
60F
330
1F
100
AcDbEntity
  8
0
100
AcDbLine
 10
54.80778355647601
 20
407.8872893660099
 30
0.0
 11
54.80778355647601
 21
382.88728936601
 31
0.0
  0
LINE
  5
610
330
1F
100
AcDbEntity
  8
0
100
AcDbLine
 10
54.80778355647601
 20
407.8872893660099
 30
0.0
 11
574.3261510594519
 21
407.8872893660099
 31
0.0
  0
LINE
  5
614
330
1F
100
AcDbEntity
  8
0
100
AcDbLine
 10
347.683609553719
 20
536.9209499887396
 30
0.0
 11
347.6789587969197
 21
531.9209521552936
 31
0.0
  0
LINE
  5
615
330
1F
100
AcDbEntity
  8
0
100
AcDbLine
 10
347.6498670342839
 20
516.8774200316565
 30
0.0
 11
347.6449304727887
 21
511.8774327196182
 31
0.0
  0
CIRCLE
  5
618
330
1F
100
AcDbEntity
  8
0
100
AcDbCircle
 10
146.8284747345646
 20
737.4494202318946
 30
0.0
 40
1.5
  0
LINE
  5
619
330
1F
100
AcDbEntity
  8
0
100
AcDbLine
 10
356.8284001606826
 20
737.2724427619957
 30
0.0
 11
356.8284001606826
 21
737.2724427619957
 31
0.0
  0
LINE
  5
61A
330
1F
100
AcDbEntity
  8
0
100
AcDbLine
 10
315.5004139859876
 20
577.2903252688462
 30
0.0
 11
310.163908455932
 21
667.0920606058992
 31
0.0
  0
LINE
  5
61B
330
1F
100
AcDbEntity
  8
0
100
AcDbLine
 10
47.90023943510472
 20
618.7582854276378
 30
0.0
 11
315.5004139859875
 21
577.2903252688462
 31
0.0
  0
LINE
  5
61C
330
1F
100
AcDbEntity
  8
0
100
AcDbLine
 10
356.8284001606826
 20
577.3604638922742
 30
0.0
 11
315.5004139859875
 21
577.2903252688462
 31
0.0
  0
LINE
  5
61D
330
1F
100
AcDbEntity
  8
0
100
AcDbLine
 10
356.8284001606826
 20
807.3604638922743
 30
0.0
 11
356.8284001606826
 21
577.3604638922742
 31
0.0
  0
LINE
  5
61E
330
1F
100
AcDbEntity
  8
0
100
AcDbLine
 10
331.9342291723801
 20
807.3604638922743
 30
0.0
 11
331.9342291723801
 21
807.3604638922743
 31
0.0
  0
LINE
  5
61F
330
1F
100
AcDbEntity
  8
0
100
AcDbLine
 10
356.8284001606826
 20
807.3604638922743
 30
0.0
 11
356.8284001606826
 21
577.3604638922742
 31
0.0
  0
LINE
  5
620
330
1F
100
AcDbEntity
  8
0
100
AcDbLine
 10
356.8284001606826
 20
807.3604638922743
 30
0.0
 11
356.8284001606826
 21
577.3604638922742
 31
0.0
  0
LINE
  5
621
330
1F
100
AcDbEntity
  8
0
100
AcDbLine
 10
356.8284001606826
 20
807.3604638922743
 30
0.0
 11
356.8284001606826
 21
577.3604638922742
 31
0.0
  0
LINE
  5
622
330
1F
100
AcDbEntity
  8
0
100
AcDbLine
 10
356.8284001606826
 20
807.3604638922743
 30
0.0
 11
356.8284001606826
 21
577.3604638922742
 31
0.0
  0
ARC
  5
623
330
1F
100
AcDbEntity
  8
0
100
AcDbCircle
 10
170.1586153577611
 20
677.3016564426592
 30
0.0
 40
115.0975295301541
100
AcDbArc
 50
96.22692499975096
 51
169.9634361663874
  0
LINE
  5
624
330
1F
100
AcDbEntity
  8
0
100
AcDbLine
 10
56.82245355894213
 20
697.3604633029047
 30
0.0
 11
47.90023943510472
 21
618.7582854276378
 31
0.0
  0
LINE
  5
625
330
1F
100
AcDbEntity
  8
0
100
AcDbLine
 10
301.8284001606826
 20
807.3604638922743
 30
0.0
 11
157.6743862908111
 21
791.7201222973828
 31
0.0
  0
LINE
  5
626
330
1F
100
AcDbEntity
  8
0
100
AcDbLine
 10
56.82245355894213
 20
697.3604633029047
 30
0.0
 11
56.82245355894213
 21
697.3604633029047
 31
0.0
  0
LINE
  5
627
330
1F
100
AcDbEntity
  8
0
100
AcDbLine
 10
310.163908455932
 20
667.0920606058992
 30
0.0
 11
56.82245355894213
 21
697.3604633029047
 31
0.0
  0
LINE
  5
628
330
1F
100
AcDbEntity
  8
0
100
AcDbLine
 10
356.8284001606826
 20
807.3604638922743
 30
0.0
 11
301.8284001606826
 21
807.3604638922743
 31
0.0
  0
LINE
  5
629
330
1F
100
AcDbEntity
  8
0
100
AcDbLine
 10
356.8284001606826
 20
807.3604638922743
 30
0.0
 11
356.8284001606826
 21
577.3604638922742
 31
0.0
  0
LINE
  5
62D
330
1F
100
AcDbEntity
  8
0
 62
    10
100
AcDbLine
 10
12.34057680342312
 20
842.3261200540306
 30
0.0
 11
12.34057680342312
 21
662.3261200540305
 31
0.0
  0
LINE
  5
62E
330
1F
100
AcDbEntity
  8
0
 62
    10
100
AcDbLine
 10
12.34057680342312
 20
662.3261200540305
 30
0.0
 11
282.3405768034231
 21
662.3261200540305
 31
0.0
  0
LINE
  5
62F
330
1F
100
AcDbEntity
  8
0
 62
    10
100
AcDbLine
 10
282.3405768034231
 20
662.3261200540305
 30
0.0
 11
282.2970673653795
 21
842.3261147954994
 31
0.0
  0
LINE
  5
630
330
1F
100
AcDbEntity
  8
0
 62
    10
100
AcDbLine
 10
282.2970673653795
 20
842.3261147954994
 30
0.0
 11
12.34057680342312
 21
842.3261200540306
 31
0.0
  0
LINE
  5
631
330
1F
100
AcDbEntity
  8
0
 62
    10
100
AcDbLine
 10
552.2970673653794
 20
842.3261147954994
 30
0.0
 11
282.3405768034231
 21
842.3261200540306
 31
0.0
  0
LINE
  5
632
330
1F
100
AcDbEntity
  8
0
 62
    10
100
AcDbLine
 10
552.3405768034231
 20
662.3261200540305
 30
0.0
 11
552.2970673653794
 21
842.3261147954994
 31
0.0
  0
LINE
  5
633
330
1F
100
AcDbEntity
  8
0
 62
    10
100
AcDbLine
 10
282.3405768034231
 20
662.3261200540305
 30
0.0
 11
552.3405768034231
 21
662.3261200540305
 31
0.0
  0
LINE
  5
634
330
1F
100
AcDbEntity
  8
0
 62
    10
100
AcDbLine
 10
282.3405768034231
 20
842.3261200540306
 30
0.0
 11
282.3405768034231
 21
662.3261200540305
 31
0.0
  0
LINE
  5
635
330
1F
100
AcDbEntity
  8
0
 62
    10
100
AcDbLine
 10
822.2970673653794
 20
842.3261147954994
 30
0.0
 11
822.2970673653794
 21
662.3261147954994
 31
0.0
  0
LINE
  5
639
330
1F
100
AcDbEntity
  8
0
 62
    10
100
AcDbLine
 10
822.2535579273358
 20
842.3261095369682
 30
0.0
 11
552.2970673653794
 21
842.3261147954994
 31
0.0
  0
LINE
  5
63A
330
1F
100
AcDbEntity
  8
0
 62
    10
100
AcDbLine
 10
822.2970673653794
 20
662.3261147954994
 30
0.0
 11
822.2535579273358
 21
842.3261095369682
 31
0.0
  0
LINE
  5
63B
330
1F
100
AcDbEntity
  8
0
 62
    10
100
AcDbLine
 10
552.2970673653794
 20
662.3261147954994
 30
0.0
 11
822.2970673653794
 21
662.3261147954994
 31
0.0
  0
LINE
  5
63C
330
1F
100
AcDbEntity
  8
0
 62
    10
100
AcDbLine
 10
552.2970673653794
 20
842.3261147954994
 30
0.0
 11
552.2970673653794
 21
662.3261147954994
 31
0.0
  0
LINE
  5
63D
330
1F
100
AcDbEntity
  8
0
 62
    10
100
AcDbLine
 10
552.2970673653794
 20
662.3261147954994
 30
0.0
 11
552.2970673653794
 21
482.3261147954993
 31
0.0
  0
LINE
  5
63E
330
1F
100
AcDbEntity
  8
0
 62
    10
100
AcDbLine
 10
552.2970673653794
 20
482.3261147954993
 30
0.0
 11
822.2970673653794
 21
482.3261147954993
 31
0.0
  0
LINE
  5
63F
330
1F
100
AcDbEntity
  8
0
 62
    10
100
AcDbLine
 10
822.2970673653794
 20
482.3261147954993
 30
0.0
 11
822.2535579273358
 21
662.3261095369683
 31
0.0
  0
LINE
  5
640
330
1F
100
AcDbEntity
  8
0
 62
    10
100
AcDbLine
 10
822.2535579273358
 20
662.3261095369683
 30
0.0
 11
552.2970673653794
 21
662.3261147954994
 31
0.0
  0
LINE
  5
644
330
1F
100
AcDbEntity
  8
0
 62
    10
100
AcDbLine
 10
822.2970673653794
 20
662.3261147954994
 30
0.0
 11
822.2970673653794
 21
482.3261147954993
 31
0.0
  0
LINE
  5
645
330
1F
100
AcDbEntity
  8
0
 62
    10
100
AcDbLine
 10
282.3405768034231
 20
662.3261200540305
 30
0.0
 11
282.3405768034231
 21
482.3261200540305
 31
0.0
  0
LINE
  5
647
330
1F
100
AcDbEntity
  8
0
 62
    10
100
AcDbLine
 10
552.3405768034231
 20
482.3261200540305
 30
0.0
 11
552.2970673653794
 21
662.3261147954994
 31
0.0
  0
LINE
  5
648
330
1F
100
AcDbEntity
  8
0
 62
    10
100
AcDbLine
 10
552.2970673653794
 20
662.3261147954994
 30
0.0
 11
282.3405768034231
 21
662.3261200540305
 31
0.0
  0
LINE
  5
649
330
1F
100
AcDbEntity
  8
0
 62
    10
100
AcDbLine
 10
282.2970673653795
 20
662.3261147954994
 30
0.0
 11
12.34057680342312
 21
662.3261200540305
 31
0.0
  0
LINE
  5
64A
330
1F
100
AcDbEntity
  8
0
 62
    10
100
AcDbLine
 10
282.3405768034231
 20
482.3261200540305
 30
0.0
 11
282.2970673653795
 21
662.3261147954994
 31
0.0
  0
LINE
  5
64B
330
1F
100
AcDbEntity
  8
0
 62
    10
100
AcDbLine
 10
12.34057680342312
 20
482.3261200540305
 30
0.0
 11
282.3405768034231
 21
482.3261200540305
 31
0.0
  0
LINE
  5
64C
330
1F
100
AcDbEntity
  8
0
 62
    10
100
AcDbLine
 10
12.34057680342312
 20
662.3261200540305
 30
0.0
 11
12.34057680342312
 21
482.3261200540305
 31
0.0
  0
LINE
  5
64D
330
1F
100
AcDbEntity
  8
0
 62
    10
100
AcDbLine
 10
12.34057680342312
 20
302.3261200540305
 30
0.0
 11
12.34057680342312
 21
122.3261200540305
 31
0.0
  0
LINE
  5
64E
330
1F
100
AcDbEntity
  8
0
 62
    10
100
AcDbLine
 10
12.34057680342312
 20
122.3261200540305
 30
0.0
 11
282.3405768034231
 21
122.3261200540305
 31
0.0
  0
LINE
  5
64F
330
1F
100
AcDbEntity
  8
0
 62
    10
100
AcDbLine
 10
282.3405768034231
 20
122.3261200540305
 30
0.0
 11
282.2970673653795
 21
302.3261147954994
 31
0.0
  0
LINE
  5
650
330
1F
100
AcDbEntity
  8
0
 62
    10
100
AcDbLine
 10
282.2970673653795
 20
302.3261147954994
 30
0.0
 11
12.34057680342312
 21
302.3261200540305
 31
0.0
  0
LINE
  5
651
330
1F
100
AcDbEntity
  8
0
 62
    10
100
AcDbLine
 10
552.2970673653794
 20
302.3261147954994
 30
0.0
 11
282.3405768034231
 21
302.3261200540305
 31
0.0
  0
LINE
  5
652
330
1F
100
AcDbEntity
  8
0
 62
    10
100
AcDbLine
 10
552.3405768034231
 20
122.3261200540305
 30
0.0
 11
552.2970673653794
 21
302.3261147954994
 31
0.0
  0
LINE
  5
653
330
1F
100
AcDbEntity
  8
0
 62
    10
100
AcDbLine
 10
282.3405768034231
 20
122.3261200540305
 30
0.0
 11
552.3405768034231
 21
122.3261200540305
 31
0.0
  0
LINE
  5
654
330
1F
100
AcDbEntity
  8
0
 62
    10
100
AcDbLine
 10
282.3405768034231
 20
302.3261200540305
 30
0.0
 11
282.3405768034231
 21
122.3261200540305
 31
0.0
  0
LINE
  5
655
330
1F
100
AcDbEntity
  8
0
 62
    10
100
AcDbLine
 10
822.2970673653794
 20
302.3261147954994
 30
0.0
 11
822.2970673653794
 21
122.3261147954994
 31
0.0
  0
LINE
  5
659
330
1F
100
AcDbEntity
  8
0
 62
    10
100
AcDbLine
 10
822.2535579273358
 20
302.3261095369683
 30
0.0
 11
552.2970673653794
 21
302.3261147954994
 31
0.0
  0
LINE
  5
65A
330
1F
100
AcDbEntity
  8
0
 62
    10
100
AcDbLine
 10
822.2970673653794
 20
122.3261147954994
 30
0.0
 11
822.2535579273358
 21
302.3261095369683
 31
0.0
  0
LINE
  5
65B
330
1F
100
AcDbEntity
  8
0
 62
    10
100
AcDbLine
 10
552.2970673653794
 20
122.3261147954994
 30
0.0
 11
822.2970673653794
 21
122.3261147954994
 31
0.0
  0
LINE
  5
65C
330
1F
100
AcDbEntity
  8
0
 62
    10
100
AcDbLine
 10
552.2970673653794
 20
302.3261147954994
 30
0.0
 11
552.2970673653794
 21
122.3261147954994
 31
0.0
  0
LINE
  5
65D
330
1F
100
AcDbEntity
  8
0
 62
    10
100
AcDbLine
 10
552.2970673653794
 20
482.3261147954993
 30
0.0
 11
552.2970673653794
 21
302.3261147954994
 31
0.0
  0
LINE
  5
65E
330
1F
100
AcDbEntity
  8
0
 62
    10
100
AcDbLine
 10
552.2970673653794
 20
302.3261147954994
 30
0.0
 11
822.2970673653794
 21
302.3261147954994
 31
0.0
  0
LINE
  5
65F
330
1F
100
AcDbEntity
  8
0
 62
    10
100
AcDbLine
 10
822.2970673653794
 20
302.3261147954994
 30
0.0
 11
822.2535579273358
 21
482.3261095369681
 31
0.0
  0
LINE
  5
660
330
1F
100
AcDbEntity
  8
0
 62
    10
100
AcDbLine
 10
822.2535579273358
 20
482.3261095369681
 30
0.0
 11
552.2970673653794
 21
482.3261147954993
 31
0.0
  0
LINE
  5
664
330
1F
100
AcDbEntity
  8
0
 62
    10
100
AcDbLine
 10
822.2970673653794
 20
482.3261147954993
 30
0.0
 11
822.2970673653794
 21
302.3261147954994
 31
0.0
  0
LINE
  5
665
330
1F
100
AcDbEntity
  8
0
 62
    10
100
AcDbLine
 10
282.3405768034231
 20
482.3261200540305
 30
0.0
 11
282.3405768034231
 21
302.3261200540305
 31
0.0
  0
LINE
  5
666
330
1F
100
AcDbEntity
  8
0
 62
    10
100
AcDbLine
 10
282.3405768034231
 20
302.3261200540305
 30
0.0
 11
552.3405768034231
 21
302.3261200540305
 31
0.0
  0
LINE
  5
667
330
1F
100
AcDbEntity
  8
0
 62
    10
100
AcDbLine
 10
552.3405768034231
 20
302.3261200540305
 30
0.0
 11
552.2970673653794
 21
482.3261147954993
 31
0.0
  0
LINE
  5
668
330
1F
100
AcDbEntity
  8
0
 62
    10
100
AcDbLine
 10
552.2970673653794
 20
482.3261095369681
 30
0.0
 11
282.3405768034231
 21
482.3261147954993
 31
0.0
  0
LINE
  5
669
330
1F
100
AcDbEntity
  8
0
 62
    10
100
AcDbLine
 10
282.2970673653795
 20
482.3261147954993
 30
0.0
 11
12.34057680342312
 21
482.3261200540305
 31
0.0
  0
LINE
  5
66A
330
1F
100
AcDbEntity
  8
0
 62
    10
100
AcDbLine
 10
282.3405768034231
 20
302.3261200540305
 30
0.0
 11
282.2970673653795
 21
482.3261147954993
 31
0.0
  0
LINE
  5
66B
330
1F
100
AcDbEntity
  8
0
 62
    10
100
AcDbLine
 10
12.34057680342312
 20
302.3261200540305
 30
0.0
 11
282.3405768034231
 21
302.3261200540305
 31
0.0
  0
LINE
  5
66C
330
1F
100
AcDbEntity
  8
0
 62
    10
100
AcDbLine
 10
12.34057680342312
 20
482.3261200540305
 30
0.0
 11
12.34057680342312
 21
302.3261200540305
 31
0.0
  0
LINE
  5
695
330
1F
100
AcDbEntity
  8
0
100
AcDbLine
 10
748.2071729295363
 20
631.5210498077332
 30
0.0
 11
700.6019404008022
 21
631.5515974199653
 31
0.0
  0
LINE
  5
696
330
1F
100
AcDbEntity
  8
0
100
AcDbLine
 10
748.2004502563198
 20
628.0210562640727
 30
0.0
 11
748.2071729295363
 21
631.5210498077332
 31
0.0
  0
LINE
  5
697
330
1F
100
AcDbEntity
  8
0
100
AcDbLine
 10
700.6019404008022
 20
631.5515974199653
 30
0.0
 11
672.7751763126629
 21
668.4324602501365
 31
0.0
  0
ARC
  5
698
330
1F
100
AcDbEntity
  8
0
100
AcDbCircle
 10
697.3370332119912
 20
729.9163399272404
 30
0.0
 40
90.05158734990024
100
AcDbArc
 50
4.624998852785926
 51
72.28144476362299
  0
LINE
  5
699
330
1F
100
AcDbEntity
  8
0
100
AcDbLine
 10
798.0088828976422
 20
657.9254411945896
 30
0.0
 11
787.0953938450456
 21
737.1775437326225
 31
0.0
  0
LINE
  5
69A
330
1F
100
AcDbEntity
  8
0
100
AcDbLine
 10
724.7434741798149
 20
815.6961474445923
 30
0.0
 11
689.7474434772682
 21
817.7937992740165
 31
0.0
  0
LINE
  5
69B
330
1F
100
AcDbEntity
  8
0
100
AcDbLine
 10
683.5376317962462
 20
763.1454851290564
 30
0.0
 11
689.7474434772682
 21
817.7937992740165
 31
0.0
  0
LINE
  5
69C
330
1F
100
AcDbEntity
  8
0
100
AcDbLine
 10
683.5376317962462
 20
763.1454851290564
 30
0.0
 11
672.7751763126629
 21
668.4324602501365
 31
0.0
  0
LINE
  5
69D
330
1F
100
AcDbEntity
  8
0
100
AcDbLine
 10
748.5375118927975
 20
763.0206354836142
 30
0.0
 11
748.2004502563198
 21
628.0210562640727
 31
0.0
  0
LINE
  5
69E
330
1F
100
AcDbEntity
  8
0
100
AcDbLine
 10
797.9512599843612
 20
627.9254965346429
 30
0.0
 11
748.2004502563198
 21
628.0210562640727
 31
0.0
  0
LINE
  5
69F
330
1F
100
AcDbEntity
  8
0
100
AcDbLine
 10
748.5375118927975
 20
763.0206354836142
 30
0.0
 11
781.0853534610347
 21
763.0147876204532
 31
0.0
  0
LINE
  5
6A0
330
1F
100
AcDbEntity
  8
0
100
AcDbLine
 10
797.9512599843612
 20
627.9254965346429
 30
0.0
 11
798.0088828976422
 21
657.9254411945896
 31
0.0
  0
MTEXT
  5
6AB
330
1F
100
AcDbEntity
  8
0
 62
    10
100
AcDbMText
 10
24.08791294335697
 20
829.8032545604614
 30
0.0
 40
6.0
 41
264.5384484380475
 71
     1
 72
     5
  1
1
  7
1
 73
     1
 44
1.0
1001
ACAD
1000
MTEXTBEGIN
1070
    73
1070
     1
1070
    44
1040
1.0
1070
    74
1070
     0
1000
MTEXTEND
  0
MTEXT
  5
6AC
330
1F
100
AcDbEntity
  8
0
 62
    10
100
AcDbMText
 10
568.9792579106006
 20
287.6219108439341
 30
0.0
 40
2.5
 41
195.5284152598497
 71
     1
 72
     5
  1
12
  7
1
 73
     1
 44
1.0
1001
ACAD
1000
MTEXTBEGIN
1070
    73
1070
     1
1070
    44
1040
1.0
1070
    74
1070
     0
1000
MTEXTEND
  0
MTEXT
  5
6AD
330
1F
100
AcDbEntity
  8
0
 62
    10
100
AcDbMText
 10
298.2699151491461
 20
292.7702476358277
 30
0.0
 40
6.0
 41
204.7297554326187
 71
     1
 72
     5
  1
11
  7
1
 73
     1
 44
1.0
1001
ACAD
1000
MTEXTBEGIN
1070
    73
1070
     1
1070
    44
1040
1.0
1070
    74
1070
     0
1000
MTEXTEND
  0
MTEXT
  5
6AE
330
1F
100
AcDbEntity
  8
0
 62
    10
100
AcDbMText
 10
25.50709101759276
 20
290.6884482733772
 30
0.0
 40
6.0
 41
200.1290889697484
 71
     1
 72
     5
  1
10
  7
1
 73
     1
 44
1.0
1001
ACAD
1000
MTEXTBEGIN
1070
    73
1070
     1
1070
    44
1040
1.0
1070
    74
1070
     0
1000
MTEXTEND
  0
MTEXT
  5
6AF
330
1F
100
AcDbEntity
  8
0
 62
    10
100
AcDbMText
 10
571.3848650815207
 20
470.0292284015016
 30
0.0
 40
6.0
 41
142.6207328192677
 71
     1
 72
     5
  1
9
  7
1
 73
     1
 44
1.0
1001
ACAD
1000
MTEXTBEGIN
1070
    73
1070
     1
1070
    44
1040
1.0
1070
    74
1070
     0
1000
MTEXTEND
  0
MTEXT
  5
6B0
330
1F
100
AcDbEntity
  8
0
 62
    10
100
AcDbMText
 10
296.4338156045933
 20
471.2849217446132
 30
0.0
 40
6.0
 41
236.9344351667696
 71
     1
 72
     5
  1
8
  7
1
 73
     1
 44
1.0
1001
ACAD
1000
MTEXTBEGIN
1070
    73
1070
     1
1070
    44
1040
1.0
1070
    74
1070
     0
1000
MTEXTEND
  0
MTEXT
  5
6B1
330
1F
100
AcDbEntity
  8
0
 62
    10
100
AcDbMText
 10
24.86098956157639
 20
470.2589752893921
 30
0.0
 40
6.0
 41
243.8354384845898
 71
     1
 72
     5
  1
7
  7
1
 73
     1
 44
1.0
1001
ACAD
1000
MTEXTBEGIN
1070
    73
1070
     1
1070
    44
1040
1.0
1070
    74
1070
     0
1000
MTEXTEND
  0
MTEXT
  5
6B2
330
1F
100
AcDbEntity
  8
0
 62
    10
100
AcDbMText
 10
293.6863009410936
 20
653.9338477632305
 30
0.0
 40
6.0
 41
239.2347720217167
 71
     1
 72
     5
  1
5
  7
1
 73
     1
 44
1.0
1001
ACAD
1000
MTEXTBEGIN
1070
    73
1070
     1
1070
    44
1040
1.0
1070
    74
1070
     0
1000
MTEXTEND
  0
MTEXT
  5
6B3
330
1F
100
AcDbEntity
  8
0
 62
    10
100
AcDbMText
 10
22.71074588534611
 20
651.1340842574949
 30
0.0
 40
6.0
 41
204.7297554326196
 71
     1
 72
     5
  1
4
  7
1
 73
     1
 44
1.0
1001
ACAD
1000
MTEXTBEGIN
1070
    73
1070
     1
1070
    44
1040
1.0
1070
    74
1070
     0
1000
MTEXTEND
  0
MTEXT
  5
6B4
330
1F
100
AcDbEntity
  8
0
 62
    10
100
AcDbMText
 10
565.425069411146
 20
829.3643718036387
 30
0.0
 40
6.0
 41
225.4327653860782
 71
     1
 72
     5
  1
3
  7
1
 73
     1
 44
1.0
1001
ACAD
1000
MTEXTBEGIN
1070
    73
1070
     1
1070
    44
1040
1.0
1070
    74
1070
     0
1000
MTEXTEND
  0
MTEXT
  5
6B5
330
1F
100
AcDbEntity
  8
0
 62
    10
100
AcDbMText
 10
294.5214266055282
 20
831.2174616539881
 30
0.0
 40
6.0
 41
204.7297554326178
 71
     1
 72
     5
  1
2
  7
1
 73
     1
 44
1.0
1001
ACAD
1000
MTEXTBEGIN
1070
    73
1070
     1
1070
    44
1040
1.0
1070
    74
1070
     0
1000
MTEXTEND
  0
MTEXT
  5
6B6
330
1F
100
AcDbEntity
  8
0
 62
    10
100
AcDbMText
 10
563.3647033652812
 20
652.5674418540642
 30
0.0
 40
6.0
 41
469.2400564173238
 71
     1
 72
     5
  1
6
  7
1
 73
     1
 44
1.0
1001
ACAD
1000
MTEXTBEGIN
1070
    73
1070
     1
1070
    44
1040
1.0
1070
    74
1070
     0
1000
MTEXTEND
  0
SPLINE
  5
6C8
330
1F
100
AcDbEntity
  8
0
100
AcDbSpline
210
0.0
220
0.0
230
1.0
 70
     8
 71
     3
 72
    12
 73
     8
 74
     6
 42
0.0000000001
 43
0.0000000001
 44
0.0000000001
 40
0.0
 40
0.0
 40
0.0
 40
0.0
 40
21.74620509512722
 40
41.05249773343628
 40
74.46424938476439
 40
103.3764142657636
 40
209.1786909921209
 40
209.1786909921209
 40
209.1786909921209
 40
209.1786909921209
 10
548.0971408965809
 20
323.930075626182
 30
0.0
 10
555.1000868815537
 20
326.2513633904406
 30
0.0
 10
568.32025209741
 20
330.6334916865742
 30
0.0
 10
585.5284584047499
 20
349.3401435044199
 30
0.0
 10
601.7762384776055
 20
370.687100365165
 30
0.0
 10
641.6121253662001
 20
412.2189562157784
 30
0.0
 10
689.9990103300149
 20
412.0521254088819
 30
0.0
 10
728.0011913269809
 20
411.9210995219232
 30
0.0
 11
548.0971408965809
 21
323.930075626182
 31
0.0
 11
568.0584430414601
 21
332.558160739356
 31
0.0
 11
582.0421586089032
 21
345.869382860742
 31
0.0
 11
603.3506906535112
 21
371.6044097795921
 31
0.0
 11
624.1522647400723
 21
391.6844444814397
 31
0.0
 11
728.0011913269809
 21
411.9210995219232
 31
0.0
  0
LINE
  5
6EA
330
1F
100
AcDbEntity
  8
0
100
AcDbLine
 10
50.28990202552019
 20
547.7042683056764
 30
0.0
 11
45.29574720935285
 21
547.7042683056764
 31
0.0
  0
LINE
  5
6EB
330
1F
100
AcDbEntity
  8
0
100
AcDbLine
 10
152.7898338515504
 20
547.7042683056764
 30
0.0
 11
226.0150557127554
 21
547.7042683056764
 31
0.0
  0
LINE
  5
6EC
330
1F
100
AcDbEntity
  8
0
100
AcDbLine
 10
231.015055556622
 20
547.7042683056764
 30
0.0
 11
235.9886118063996
 21
547.7042683056764
 31
0.0
  0
LINE
  5
6ED
330
1F
100
AcDbEntity
  8
0
100
AcDbLine
 10
137.561532061095
 20
536.2881486458774
 30
0.0
 11
210.7867444693809
 21
536.2882337646931
 31
0.0
  0
LINE
  5
6EE
330
1F
100
AcDbEntity
  8
0
100
AcDbLine
 10
220.7867239329078
 20
536.288245388919
 30
0.0
 11
235.7602796448614
 21
536.2882627945541
 31
0.0
  0
LINE
  5
6EF
330
1F
100
AcDbEntity
  8
0
100
AcDbLine
 10
60.06156986410065
 20
536.2880585579858
 30
0.0
 11
45.06741501834294
 21
536.2880585579858
 31
0.0
  0
LINE
  5
6F0
330
1F
100
AcDbEntity
  8
0
100
AcDbLine
 10
344.6971231891744
 20
551.3180194385005
 30
0.0
 11
344.6820886850394
 21
536.9237418586672
 31
0.0
  0
LINE
  5
6F1
330
1F
100
AcDbEntity
  8
0
100
AcDbLine
 10
344.6772482018157
 20
531.9237442016953
 30
0.0
 11
344.6611536494704
 21
516.8801999886802
 31
0.0
  0
LINE
  5
6F2
330
1F
100
AcDbEntity
  8
0
100
AcDbLine
 10
344.6666316443063
 20
511.8802029895237
 30
0.0
 11
344.645527014455
 21
501.9190067207163
 31
0.0
  0
LINE
  5
6F3
330
1F
100
AcDbEntity
  8
0
100
AcDbLine
 10
362.9337840396656
 20
551.6045282953389
 30
0.0
 11
362.925046091879
 21
542.2104185000915
 31
0.0
  0
LINE
  5
6F4
330
1F
100
AcDbEntity
  8
0
100
AcDbLine
 10
362.9203953350796
 20
537.2104206666455
 30
0.0
 11
362.9064023850481
 21
522.1666927612719
 31
0.0
  0
LINE
  5
6F5
330
1F
100
AcDbEntity
  8
0
100
AcDbLine
 10
362.9017516377881
 20
517.1667051833829
 30
0.0
 11
362.8878354557148
 21
502.2055100016046
 31
0.0
  0
LINE
  5
709
330
1F
100
AcDbEntity
  8
0
100
AcDbLine
 10
797.9512599843612
 20
627.9254965346424
 30
0.0
 11
797.8936370710798
 21
597.9255518746955
 31
0.0
  0
LINE
  5
70A
330
1F
100
AcDbEntity
  8
0
100
AcDbLine
 10
748.0189057592956
 20
493.0211783322921
 30
0.0
 11
780.5665296325355
 21
492.9019929528041
 31
0.0
  0
LINE
  5
70B
330
1F
100
AcDbEntity
  8
0
100
AcDbLine
 10
797.9512599843612
 20
627.9254965346424
 30
0.0
 11
748.2004502563198
 21
628.0210562640727
 31
0.0
  0
LINE
  5
70C
330
1F
100
AcDbEntity
  8
0
100
AcDbLine
 10
748.0189057592956
 20
493.0211783322921
 30
0.0
 11
748.2004502563198
 21
628.0210562640727
 31
0.0
  0
LINE
  5
70D
330
1F
100
AcDbEntity
  8
0
100
AcDbLine
 10
683.0190256627441
 20
493.146027977735
 30
0.0
 11
672.6204916151791
 21
587.8996981937887
 31
0.0
  0
LINE
  5
70E
330
1F
100
AcDbEntity
  8
0
100
AcDbLine
 10
683.0190256627441
 20
493.146027977735
 30
0.0
 11
689.0188589064287
 21
438.4742619458243
 31
0.0
  0
LINE
  5
70F
330
1F
100
AcDbEntity
  8
0
100
AcDbLine
 10
724.0226895573523
 20
440.4374603292112
 30
0.0
 11
689.0188589064287
 21
438.4742619458243
 31
0.0
  0
LINE
  5
710
330
1F
100
AcDbEntity
  8
0
100
AcDbLine
 10
797.8936370710798
 20
597.9255518746955
 30
0.0
 11
786.6757799716329
 21
518.7159585030816
 31
0.0
  0
ARC
  5
711
330
1F
100
AcDbEntity
  8
0
100
AcDbCircle
 10
696.9459756986537
 20
526.3219173098017
 30
0.0
 40
90.05158734990024
100
AcDbArc
 50
287.4984517854207
 51
355.1548976962578
  0
LINE
  5
712
330
1F
100
AcDbEntity
  8
0
100
AcDbLine
 10
700.588728968249
 20
624.6733918086157
 30
0.0
 11
672.6204916151791
 21
587.8996981937887
 31
0.0
  0
LINE
  5
713
330
1F
100
AcDbEntity
  8
0
100
AcDbLine
 10
748.2004502563198
 20
628.0210562640727
 30
0.0
 11
748.193727583104
 21
624.5210627204122
 31
0.0
  0
LINE
  5
714
330
1F
100
AcDbEntity
  8
0
100
AcDbLine
 10
748.193727583104
 20
624.5210627204122
 30
0.0
 11
700.588728968249
 21
624.6733918086157
 31
0.0
  0
LINE
  5
715
330
1F
100
AcDbEntity
  8
0
100
AcDbLine
 10
748.1938150063661
 20
624.5514058465437
 30
0.0
 11
700.588728968249
 21
624.6733918086157
 31
0.0
  0
LINE
  5
716
330
1F
100
AcDbEntity
  8
0
100
AcDbLine
 10
748.1803696847357
 20
621.0514316718779
 30
0.0
 11
748.1938150063661
 21
624.5514058465437
 31
0.0
  0
LINE
  5
72B
330
1F
100
AcDbEntity
  8
0
100
AcDbLine
 10
76.25112840626752
 20
816.9152665525597
 30
0.0
 11
176.2511284062675
 21
816.9152665525597
 31
0.0
  0
LINE
  5
72C
330
1F
100
AcDbEntity
  8
0
100
AcDbLine
 10
76.25112840626752
 20
816.9152665525597
 30
0.0
 11
76.25112840626752
 21
819.9152665525598
 31
0.0
  0
LINE
  5
72D
330
1F
100
AcDbEntity
  8
0
100
AcDbLine
 10
176.2511284062675
 20
816.9152665525597
 30
0.0
 11
176.2359083948686
 21
819.9152279441864
 31
0.0
  0
LINE
  5
72E
330
1F
100
AcDbEntity
  8
0
100
AcDbLine
 10
176.2511284062675
 20
816.9152665525597
 30
0.0
 11
176.2445301793153
 21
813.9152738086684
 31
0.0
  0
LINE
  5
730
330
1F
100
AcDbEntity
  8
0
100
AcDbLine
 10
76.25112840626752
 20
816.9152665525597
 30
0.0
 11
76.2629900781977
 21
813.9152900025282
 31
0.0
  0
MTEXT
  5
731
330
1F
100
AcDbEntity
  8
0
100
AcDbMText
 10
114.6727092234714
 20
828.6407742540328
 30
0.0
 40
6.0
 41
87.80265620377212
 71
     1
 72
     5
  1
10 cm
  7
1
 73
     1
 44
1.0
1001
ACAD
1000
MTEXTBEGIN
1070
    73
1070
     1
1070
    44
1040
1.0
1070
    74
1070
     0
1000
MTEXTEND
  0
MTEXT
  5
742
330
1F
100
AcDbEntity
  8
0
100
AcDbMText
 10
485.5751690061178
 20
563.3491867966995
 30
0.0
 40
4.0
 41
190.2534819349712
 71
     1
 72
     5
  1
D-FULL3D\P\PEnv:    60 cm\PLong :  70cm\PPoids :  150 gr  ou moins\PMoteur: AXI 220454, Axi 220354,\P       Xpower 280550 ou equivalent  \P     
  7
1
 73
     1
 44
1.0
1001
ACAD
1000
MTEXTBEGIN
1070
    73
1070
     1
1070
    44
1040
1.0
1070
    74
1070
     0
1000
MTEXTEND
  0
LWPOLYLINE
  5
743
330
1F
100
AcDbEntity
  8
0
100
AcDbPolyline
 90
        4
 70
     1
 43
0.0
 10
478.0436217870746
 20
570.2646443404196
 10
622.3283467296522
 20
570.2646443404196
 10
622.3283467296522
 20
508.9660002754243
 10
478.0436217870746
 20
508.9660002754243
  0
MTEXT
  5
755
330
1F
100
AcDbEntity
  8
0
100
AcDbMText
 10
334.0762954626889
 20
765.6021061371598
 30
0.0
 40
10.0
 41
550.7212234107574
 71
     1
 72
     5
  1
     X-TAZI ( {\H0.5x;Ubassy pierrick })\P\P   Concept and Design
  7
1
 73
     1
 44
1.0
1001
ACAD
1000
MTEXTBEGIN
1070
    73
1070
     1
1070
    44
1040
1.0
1070
    74
1070
     0
1000
MTEXTEND
  0
ENDSEC
  0
SECTION
  2
OBJECTS
  0
DICTIONARY
  5
C
330
0
100
AcDbDictionary
281
     1
  3
ACAD_COLOR
350
6B
  3
ACAD_GROUP
350
D
  3
ACAD_IMAGE_VARS
350
3A2
  3
ACAD_LAYOUT
350
1A
  3
ACAD_MATERIAL
350
6A
  3
ACAD_MLINESTYLE
350
17
  3
ACAD_PLOTSETTINGS
350
19
  3
ACAD_PLOTSTYLENAME
350
E
  3
ACDBHEADERROUNDTRIPXREC
350
758
  3
AcDbVariableDictionary
350
5E
  3
DWGPROPS
350
757
  0
DICTIONARY
  5
6B
102
{ACAD_REACTORS
330
C
102
}
330
C
100
AcDbDictionary
281
     1
  0
DICTIONARY
  5
D
102
{ACAD_REACTORS
330
C
102
}
330
C
100
AcDbDictionary
281
     1
  0
RASTERVARIABLES
  5
3A2
102
{ACAD_REACTORS
330
C
102
}
330
C
100
AcDbRasterVariables
 90
        0
 70
     1
 71
     1
 72
     1
  0
DICTIONARY
  5
1A
102
{ACAD_REACTORS
330
C
102
}
330
C
100
AcDbDictionary
281
     1
  3
Model
350
22
  3
Présentation1
350
51
  3
Présentation2
350
56
  0
DICTIONARY
  5
6A
102
{ACAD_REACTORS
330
C
102
}
330
C
100
AcDbDictionary
281
     1
  0
DICTIONARY
  5
17
102
{ACAD_REACTORS
330
C
102
}
330
C
100
AcDbDictionary
281
     1
  3
Standard
350
18
  0
DICTIONARY
  5
19
102
{ACAD_REACTORS
330
C
102
}
330
C
100
AcDbDictionary
281
     1
  0
ACDBDICTIONARYWDFLT
  5
E
102
{ACAD_REACTORS
330
C
102
}
330
C
100
AcDbDictionary
281
     1
  3
Normal
350
F
100
AcDbDictionaryWithDefault
340
F
  0
DICTIONARY
  5
758
102
{ACAD_REACTORS
330
C
102
}
330
C
100
AcDbDictionary
281
     1
  3
COLORDICT
350
75A
  3
MATERIALDICT
350
759
  0
DICTIONARY
  5
5E
102
{ACAD_REACTORS
330
C
102
}
330
C
100
AcDbDictionary
281
     1
  3
DIMASSOC
350
5F
  3
HIDETEXT
350
63
  3
PROJECTNAME
350
6CE
  0
XRECORD
  5
757
102
{ACAD_REACTORS
330
C
102
}
330
C
100
AcDbXrecord
280
     1
  1
DWGPROPS COOKIE
  2

  3

  4

  6

  7

  8

  9

300
=
301
=
302
=
303
=
304
=
305
=
306
=
307
=
308
=
309
=
 40
0.2546311111111111
 41
2454042.262609769
 42
2454045.906012361
  1

 90
        0
  0
LAYOUT
  5
22
102
{ACAD_XDICTIONARY
360
75B
102
}
102
{ACAD_REACTORS
330
1A
102
}
330
1A
100
AcDbPlotSettings
  1

  2
Canon MP170 Series Printer
  4
User256
  6

 40
4.180416584014891
 41
5.831417560577392
 42
10.10707092285156
 43
3.757080078125
 44
215.8999938964844
 45
279.3999938964844
 46
0.0
 47
0.0
 48
0.0
 49
0.0
140
0.0
141
0.0
142
1.0
143
6.069511423975557
 70
 11952
 72
     1
 73
     1
 74
     0
  7

 75
     0
147
0.1647579072097694
148
192.2049803869449
149
134.6462003929755
100
AcDbLayout
  1
Model
 70
     1
 71
     0
 10
0.0
 20
0.0
 11
12.0
 21
9.0
 12
0.0
 22
0.0
 32
0.0
 14
0.0
 24
0.0
 34
0.0
 15
0.0
 25
0.0
 35
0.0
146
0.0
 13
0.0
 23
0.0
 33
0.0
 16
1.0
 26
0.0
 36
0.0
 17
0.0
 27
1.0
 37
0.0
 76
     0
330
1F
  0
LAYOUT
  5
51
102
{ACAD_XDICTIONARY
360
75D
102
}
102
{ACAD_REACTORS
330
1A
102
}
330
1A
100
AcDbPlotSettings
  1

  2
None
  4

  6

 40
0.0
 41
0.0
 42
0.0
 43
0.0
 44
0.0
 45
0.0
 46
0.0
 47
0.0
 48
0.0
 49
0.0
140
0.0
141
0.0
142
1.0
143
1.0
 70
   688
 72
     0
 73
     0
 74
     5
  7

 75
    16
147
1.0
148
0.0
149
0.0
100
AcDbLayout
  1
Présentation1
 70
     1
 71
     1
 10
0.0
 20
0.0
 11
12.0
 21
9.0
 12
0.0
 22
0.0
 32
0.0
 14
0.0
 24
0.0
 34
0.0
 15
0.0
 25
0.0
 35
0.0
146
0.0
 13
0.0
 23
0.0
 33
0.0
 16
1.0
 26
0.0
 36
0.0
 17
0.0
 27
1.0
 37
0.0
 76
     0
330
50
  0
LAYOUT
  5
56
102
{ACAD_XDICTIONARY
360
75F
102
}
102
{ACAD_REACTORS
330
1A
102
}
330
1A
100
AcDbPlotSettings
  1

  2
None
  4

  6

 40
0.0
 41
0.0
 42
0.0
 43
0.0
 44
0.0
 45
0.0
 46
0.0
 47
0.0
 48
0.0
 49
0.0
140
0.0
141
0.0
142
1.0
143
1.0
 70
   688
 72
     0
 73
     0
 74
     5
  7

 75
    16
147
1.0
148
0.0
149
0.0
100
AcDbLayout
  1
Présentation2
 70
     1
 71
     2
 10
0.0
 20
0.0
 11
12.0
 21
9.0
 12
0.0
 22
0.0
 32
0.0
 14
0.0
 24
0.0
 34
0.0
 15
0.0
 25
0.0
 35
0.0
146
0.0
 13
0.0
 23
0.0
 33
0.0
 16
1.0
 26
0.0
 36
0.0
 17
0.0
 27
1.0
 37
0.0
 76
     0
330
55
  0
MLINESTYLE
  5
18
102
{ACAD_REACTORS
330
17
102
}
330
17
100
AcDbMlineStyle
  2
STANDARD
 70
     0
  3

 62
   256
 51
90.0
 52
90.0
 71
     2
 49
0.5
 62
   256
  6
BYLAYER
 49
-0.5
 62
   256
  6
BYLAYER
  0
ACDBPLACEHOLDER
  5
F
102
{ACAD_REACTORS
330
E
102
}
330
E
  0
XRECORD
  5
75A
102
{ACAD_REACTORS
330
758
102
}
330
758
100
AcDbXrecord
280
     1
340
6B
  0
XRECORD
  5
759
102
{ACAD_REACTORS
330
758
102
}
330
758
100
AcDbXrecord
280
     1
340
6A
  0
DICTIONARYVAR
  5
5F
102
{ACAD_REACTORS
330
5E
102
}
330
5E
100
DictionaryVariables
280
     0
  1
2
  0
DICTIONARYVAR
  5
63
102
{ACAD_REACTORS
330
5E
102
}
330
5E
100
DictionaryVariables
280
     0
  1
1
  0
DICTIONARYVAR
  5
6CE
102
{ACAD_REACTORS
330
5E
102
}
330
5E
100
DictionaryVariables
280
     0
  1

  0
DICTIONARY
  5
75B
330
22
100
AcDbDictionary
280
     1
281
     1
  3
ACAD_XREC_ROUNDTRIP
360
75C
  0
DICTIONARY
  5
75D
330
51
100
AcDbDictionary
280
     1
281
     1
  3
ACAD_XREC_ROUNDTRIP
360
75E
  0
DICTIONARY
  5
75F
330
56
100
AcDbDictionary
280
     1
281
     1
  3
ACAD_XREC_ROUNDTRIP
360
760
  0
XRECORD
  5
75C
102
{ACAD_REACTORS
330
75B
102
}
330
75B
100
AcDbXrecord
280
     1
102
SHADEPLOT
 70
     0
102
SHADEPLOTRESLEVEL
 70
     2
102
SHADEPLOTCUSTOMDPI
 70
   300
  0
XRECORD
  5
75E
102
{ACAD_REACTORS
330
75D
102
}
330
75D
100
AcDbXrecord
280
     1
102
SHADEPLOT
 70
     0
102
SHADEPLOTRESLEVEL
 70
     2
102
SHADEPLOTCUSTOMDPI
 70
   300
  0
XRECORD
  5
760
102
{ACAD_REACTORS
330
75F
102
}
330
75F
100
AcDbXrecord
280
     1
102
SHADEPLOT
 70
     0
102
SHADEPLOTRESLEVEL
 70
     2
102
SHADEPLOTCUSTOMDPI
 70
   300
  0
ENDSEC
  0
EOF
